New Found Glory - Head On Collision Chords & Tabs

 

Head On Collision Chords & Tabs

New Found Glory Chords & Tabs

Version: 4 Type: Bass Tab 0 ratings
1 star 2 stars 3 stars 4 stars 5 stars
comments

Head On Collision Bass Tab

New Found Glory
Head On Collision

Tabbed by: Tiffany King
AIM:InVaDeRzIm1343

Standard Tunning

Intro  (0:03)
G----------------------------------------------------------
D----------------------------------------------------------  X2
A-0-0-0-0-0-2-2-2-2-2-2-2-5-5-5-4-4-4-5-5-5-4-4-4-4-4-4-4--
E----------------------------------------------------------
                                                      
Verse  (0:15)		
G-----------------------------------
D-----------------------------------
A-00--0-0----------00--0-0----------
E---------22--2-2----------22--2-2--

(0:27)
G--------------------------------------------------
D--------------------------------------------------  X2
A-0-0-0-0-0-0-0-0-0-0-0-0--------------------------
E-------------------------2-2-2-2-2-2-2-2-2-2-2-2--

Pre-Chorus  (0:38)
G----------------------------------------------
D----------------------------------------------
A----------------------------------------------
E-0-0-0-0-0-0-0-0-0-0-0-0-0-0-0-0-0-0-0-0-0-0--
     
Chorus  (0:44)
G----------------------------------------------------------
D----------------------------------------------------------  X3
A-0-0-0-0-0-2-2-2-2-2-2-2-5-5-5-4-4-4-5-5-5-4-4-4-4-4-4-4--
E----------------------------------------------------------

(1:02)
G----------------------------------------------------------
D----------------------------------------------------------  X1
A-0-0-0-0-0-2-2-2-2-2-2-2-5-5-5-5-5-5-5-5-5-5-5-5-5-5-5-5--
E----------------------------------------------------------
                                                      
Verse  (1:08)		
G-----------------------------------
D-----------------------------------
A-00--0-0----------00--0-0----------
E---------22--2-2----------22--2-2--

(1:19)
G--------------------------------------------------
D--------------------------------------------------  X2
A-0-0-0-0-0-0-0-0-0-0-0-0--------------------------
E-------------------------2-2-2-2-2-2-2-2-2-2-2-2--
[ Tab from: http://www.guitartabs.cc/tabs/n/new_found_glory/head_on_collision_btab_ver_4.html ]
Pre-Chorus  (1:32)
G----------------------------------------------
D----------------------------------------------
A----------------------------------------------
E-0-0-0-0-0-0-0-0-0-0-0-0-0-0-0-0-0-0-0-0-0-0--
     
Chorus  (1:38)
G----------------------------------------------------------
D----------------------------------------------------------  X3
A-0-0-0-0-0-2-2-2-2-2-2-2-5-5-5-4-4-4-5-5-5-4-4-4-4-4-4-4--
E----------------------------------------------------------

(1:55)
G----------------------------------------------------------
D----------------------------------------------------------  X1
A-0-0-0-0-0-2-2-2-2-2-2-2-5-5-5-5-5-5-5-5-5-5-5-5-5-5-5-5--
E----------------------------------------------------------

Solo  (2:02)
G---------------------------------------------------------------
D---------------------------------------------------------------
A-00----------00----------------00--------------00--------------
E-------------------00--22--00------00--22--00------00--22--00--

(2:25)
G------------------------------------------------------------------------------
D------------------------------------------------------------------------------
A-5-5-5-5-5-5-5-5---------------5-5-5-5-5-5-5-5---------------5-5-5-5-5-5-5-5--
E------------------------------------------------------------------------------

(2:33)
G----------------------------------
D----------------------------------
A----------------------------------
E-0000000000000000-00-0-000-0-000--
  
Chorus  (2:43)
G----------------------------------------------------------
D----------------------------------------------------------  X3
A-0-0-0-0-0-2-2-2-2-2-2-2-5-5-5-4-4-4-5-5-5-4-4-4-4-4-4-4--
E----------------------------------------------------------

(3:01)
G----------------------------------------------------------
D----------------------------------------------------------  X1
A-0-0-0-0-0-2-2-2-2-2-2-2-5-5-5-5-5-5-5-5-5-5-5-5-5-5-5-5--
E----------------------------------------------------------

Outro-Chorus  (3:07)
G----------------------------------------------------------
D----------------------------------------------------------  X3
A-0-0-0-0-0-2-2-2-2-2-2-2-5-5-5-4-4-4-5-5-5-4-4-4-4-4-4-4--
E----------------------------------------------------------

(3:24)                                                        
G----------
D----------
A-0-0-0-0--
E----------

(3:26)
G-------------------------------------------------------------------------------
D-------------------------------------------------------------------------------
A-2-2-2-2-2-2-5-5-5-4-4-4-5-5-5-4-4-4-----5-5-5-5-5-5-5-5-5-5-5-5--5-5-5-5-0~~--
E-------------------------------------------------------------------------------

Thats it, this song is awsome to play.
Please rate this tab, Thanks.
Comments