New Found Glory - Head On Collision Chords & Tabs

 

Head On Collision Chords & Tabs

New Found Glory Chords & Tabs

Version: 3 Type: Bass Tab 0 ratings
1 star 2 stars 3 stars 4 stars 5 stars
comments

Head On Collision Bass Tab

---------------------------------------------------------------------------
                   Head On Collision - New Found Glory
---------------------------------------------------------------------------

Tabbed By : Tony
e-mail: odell18_08

OK, before I begin, I'd jus like to say I don't play bass normally, but i love
the sound so every now and then i do play for fun. This tab basically fills in
the little notes that you miss if you dont listen closly. This song is really
good and the bass is played really well in it. And by the way, im always into
meetin new people who like to talk about playin guitar, bands, all the cool stuff
so if u wanna talk, email or msn me, whatever, now enjoy the tab! 

Tuning: Normal I Guess

Intro
G|-----------------------------------------------------------------------|
D|-----------------------------------------------------------------------|
A|------2-2-2---2-5-5-5-5-5-5-5-5----------------------------------------|
E|-5-5-5------0----------------------------------------------------------|

Verse "I've been waiting for a good day..."
G|-----------------------------------------------------------------------|
D|-----------------------------------------------------------------------|
A|-----------------------------------------------------------------------|
E|-5-5----2-2------------------------------------------------------------|
[ Tab from: http://www.guitartabs.cc/tabs/n/new_found_glory/head_on_collision_btab_ver_3.html ]
Verse Continued "It's not the falling of the temperature..."
G|-----------------------------------------------------------------------|
D|-----------------------------------------------------------------------|
A|---7---7-9-7---4-5-4-2-4-----------------------------------------------|
E|-5---5-------2---------------------------------------------------------|

PreChorus "And it feels like..." Play as much as needed, not timed correctly
G|-----------------------------------------------------------------------|
D|-----------------------------------------------------------------------|
A|-----------------------------------------------------------------------|
E|-0-0-0-0-0-0-0-0-0-0-0-0-0-0-0-0-0-0-0-0-0-0-0-0-0-0-0-0-0-0-0-0-------|
                                                       PM^ ^ ^ ^ ^
Chorus
G|-----------------------------------------------------------------------|
D|-----------------------------------------------------------------------|
A|------2-2-2---2-5-5-5-5-5-5-5-5----------------------------------------|
E|-5-5-5------0----------------------------------------------------------|

Bridge
G|-----------------------------------------------------------------------|
D|-----------------------------------------------------------------------|
A|------------5-5--7-7---------------------------------------------------|
E|-5-5---0-0-------------------------------------------------------------|


I think thats it, actually, in the chorus... something is played at the end part
that i really cant pick out, but the guitar does a good job of covering over so
you really dont miss it that much. So if u want me to tab other songs, let me know
and i'll see if i can help ya out, ok, thats it, cya
Comments