New Found Glory - Head On Collision Chords & Tabs

 

Head On Collision Chords & Tabs

New Found Glory Chords & Tabs

Version: 2 Type: Bass Tab 0 ratings
1 star 2 stars 3 stars 4 stars 5 stars
comments

Head On Collision Bass Tab

   
-------------------------------------------------------------------------------
			  Head on collision - New Found Glory
-------------------------------------------------------------------------------

Tabbed By :Zero is great man 
Tuning: EADG

Intro/Chorus: "Slightly bruied and broken..."
G|-------------------------------|
D|-------------------------------|
A|-0-0-0-0-0-0-2-2-2-2-5-4-5-4-5-|
E|-------------------------------|

Verse:
G|---------------------------------------|
D|---------------------------------------|
A|-0-0-----0-0---0-0-----0-0-----0-0-----|
E|-----2-2-----2-----2-2-----2-2-----2-2-|
[ Tab from: http://www.guitartabs.cc/tabs/n/new_found_glory/head_on_collision_btab_ver_2.html ]
Pre-Chorus: "And it feels like, I'm at an all time low."
G|-----------------------------------------|
D|-----------------------------------------|
A|-----------------------------------------|
E|-0-0-0-0-0-0-0-0-0-0-0-0-0-0-0-0-0-0-0-0-|

Guitar solo/Bridge:" You were gone..."
G|-------------------------|
D|-------------------------|
A|-----------4-4--5-5------|
E|-5-5--0-0------------5-5-|

Outro:
G|-----------------------|
D|-----------------------|
A|-5-4-5-4-5-5-4-5-4-5-0-|
E|-----------------------|

| /  slide up
| \  slide down
| h  hammer-on
| p  pull-off
| ~  vibrato
| +  harmonic
| x  Mute note

===============================================================================
Comments