New Found Glory - Head On Collision Chords & Tabs

 

Head On Collision Chords & Tabs

New Found Glory Chords & Tabs

Version: 1 Type: Bass Tab 1 rating
1 star 2 stars 3 stars 4 stars 5 stars
comments

Head On Collision Bass Tab

   
So basically this song sucks but I had to learn it so I made it fun

Intro

G|---------------------------------------
D|---------------------------------------
A|000000-2222222222-555-444-555-444-55-44
E|---------------------------------------


G|-----------------------------------------
D|-----------------------------------------
A|000000-2222222222-5-4-5-7-5-4-5-4-5-7-5-4
E|-----------------------------------------

Verse

Improv a lil on A and then F#m

Try stuff like this

G|--------------------------
D|----------------2---------
A|--7-54------------4-------
E|5------5-4-2-22-----5-4-02

Sounds good on the 7th fret D for the A and 9th fret A for the F#

Chorus part I

G|--------------------------------------
D|--------------------------------------
A|------------------------777777-9-11-12
E|000000000000000000000000--------------

Chorus part II (the funnish part)
[ Tab from: http://www.guitartabs.cc/tabs/n/new_found_glory/head_on_collision_btab.html ]
G|---------4---2--4---7---6---7---6---7--6
D|----------------------------------------
A|000000-22-222-22-2-5-5-4-4-5-5-4-4-5--4-
E|----------------------------------------

G|---------4---2---4----------------------------
D|----------------------------------------------
A|000000-22-222-22-2-5-4-5-7-5-4-5-4-5-7-5-4----
E|-------------------------------------------7-5

Switch the 5-4-5-4 part up an octave sometimes to 

G|7-6-7-9-7-6-7-6-7-9-7-6----
D|------------------------9-7
A|---------------------------
E|---------------------------

"Solo" (if this is what passes as a solo these days, ya'll need to listen to Marty Friedman)
The fun part

G|-----------------------------------------
D|--------11--------14-------11----11h12p12
A|00-12-0----0-12-0----0-12-0----0---------
E|-----------------------------------------

G|---------------------------------
D|-----7---9---7-------6h7-----6h7-
A|7-7----7---7---7-5-5-----7-7-----
E|---------------------------------

Thats about it, you can play the second half of the "solo" later in the song if u wanna.

Sue me if i didnt count the numbers right, 
and im pretty sure thats not what he actually plays 
in the song but it sounds good so whatever
Comments