New Found Glory - Head On Collision Acoustic Chords & Tabs

 

Head On Collision Acoustic Chords & Tabs

New Found Glory Chords & Tabs

Version: 1 Type: Tab 0 ratings
1 star 2 stars 3 stars 4 stars 5 stars
comments

Head On Collision Acoustic Tab

   
-------------------------------------------------------------------------------
              Head On Collision (Acoustic) - New Found Glory
-------------------------------------------------------------------------------
Tabbed by: Mark Plummer
Email: happytreefriends_firstblood@hotmail.com

Ok like with the Ending In Tragedy acoustic, if u don't have this acoustic song
e-mail me on the above address and i will e-mail u back with the song attached
so you can then learn it:D how kind am i?!? lol 

Enjoi.

Tuning: Standard (EADGBe)

Intro
Rhy. Fig. 1 - Gtr 1 (x2)
e|---------------------------------------------------------------------------|
B|---------------------------------------------------------------------------|
G|-------4444444444447777777777777777----------------------------------------|
D|-7777774444444444447777777777777777----------------------------------------|
A|-7777772222222222225555555555555555----------------------------------------|
E|-555555--------------------------------------------------------------------|

Riff A - Gtr 2
e|---------------------------------------------------------------------------|
B|---------------------------------------------------------------------------|
G|---------------------------------------------------------------------------|
D|---------------------------------------------------------------------------|
A|555-4-555-4-5p4h5--54575454545754545---------------------------------------|
E|---------------------------------------------------------------------------|

Verse
e|---------------------------------------------------------------------------|
B|---------------------------------------------------------------------------|
G|---------------------------------------------------------------------------|
D|-7------7------4------4------7------7------4------44-----------------------|
A|-7------7------4------4------7------7------4------44-----------------------|
E|-5------5------2------2------5------5------2------22-----------------------|

listen to the song for the ryhthm of these chords cuz i cant be bothered
tabbing it out/working it out.   
e|---------------------------------------------------------------------------|
B|---------------------------------------------------------------------------|
G|---------------------------------------------------------------------------|
D|-7-----4-----7-----4-------------------------------------------------------|
A|-7-----4-----7-----4-------------------------------------------------------|
E|-5-----2-----5-----2-------------------------------------------------------|

e|---------------------------------------------------------------------------|
B|---------------------------------------------------------------------------|
G|---------------------------------------------------------------------------|
D|-2-2-2-2-2-2-2-2-2-2-2-2---------------------------------------------------|
A|-2-2-2-2-2-2-2-2-2-2-2-2--0--7---------------------------------------------|
E|-0-0-0-0-0-0-0-0-0-0-0-0-0-75-757------------------------------------------|

Chorus - Gtr 1 - Rhy. Fig. 1 (x4), Gtr 2 - Riff A (x2)
Verse
Chorus - Gtr 1 - Rhy. Fig. 1 (x4), Gtr 2 - Riff A (x2)
[ Tab from: http://www.guitartabs.cc/tabs/n/new_found_glory/head_on_collision_acoustic_tab.html ]
Solo
Riff B (x4) - Gtr 2
e|---------------------------------------------------------------------------|
B|---------------------------------------------------------------------------|
G|----6---9---6-6h7p6--------------------------------------------------------|
D|--7---7---7----------7-9-7--6h7--6h7---------------------------------------|
A|00-0-0-0-0-0-0-----77-7-7-55---77------------------------------------------|
E|---------------------------------------------------------------------------|
  ** * * * * * *     ** * * **   **

e|---------------------------------------------------------------------------|
B|---on second time----------------------------------------------------------|
G|---of gtr 2 playing---------77-44--------------7----4--------------7----4--|
D|77-riff B-----------77--22--77-44--7-----2-----7x4--4x4-7-----2----7x4--4x4|
A|77------------------77--22--55-22--7x16--2x8---5----2---7x16--2x8--5----2--|
E|55------------------55--00---------5-----0--------------5-----0------------|

e|---------------------------------------------------------------------------|
B|---------------------------------------------------------------------------|
G|7--------------7--------------7--------------------------------------------|
D|7x8---6h7--6h7-7x8---6h7--6h7-7x8--xxxx------------------------------------|
A|5---55---77----5---55---77----5----xxxx------------------------------------|
E|-----------------------------------xxxx------------------------------------|
      **   **        **   **
e|---------------------------------------------------------------------------|
B|---------------------------------------------------------------------------|
G|---------------------------------------------------------------------------|
D|-2-2-2-2-2-2-2-2-2-2-2-2-2-------------------------------------------------|
A|-2-2-2-2-2-2-2-2-2-2-2-2-2-------------------------------------------------|
E|-0-0-0-0-0-0-0-0-0-0-0-0-0-------------------------------------------------|

Chorus - Gtr 1 - Rhy. Fig. 1 (x4), Gtr 2 - Riff A (x2)

Outro-Chorus
Gtr 1
e|---------------------------------------------------------------------------|
B|---------------------------------------------------------------------------|
G|-------7-----------7-----------7----------4-4-4-4-4-4-7-play this----------|
D|-7-----7x16--7-----7x16--7-----7x16--7777-4-4-4-4-4-4-7-chord lots---7-----|
A|-7x16--5-----7x16--5-----7x16--5-----7777-2-2-2-2-2-2-5-times--------7-----|
E|-5-----------5-----------5-----------5555----------------------------5-----|

Gtr 2 - sorry really can't be bothered to work it out! so you can work it out
yourself, i'm not in the mood for lil solos i can barely make
out.
e|---------------------------------------------------------------------------|
B|---------------------------------------------------------------------------|
G|---------------------------------------------------------------------------|
D|---------------------------------------------------------------------------|
A|---------------------------------------------------------------------------|
E|---------------------------------------------------------------------------|

| h  hammer-on
| p  pull-off
===============================================================================
Comments