New Found Glory - Happy Together Chords & Tabs

 

Happy Together Chords & Tabs

New Found Glory Chords & Tabs

Version: 1 Type: Tab 0 ratings
1 star 2 stars 3 stars 4 stars 5 stars
comments

Happy Together Tab

-------------------------------------------------------------------------------
		  Happy Together (punk cover) - New Found Glory
-------------------------------------------------------------------------------

Tabbed by:Mikey G
Email:Americana1987@aol.com

Tuning:normal

*=16 times all down it's punk
^=play 8 times

i dont know the intro, sorry

verse:
e|----------------|
B|----------------|
G|--------7*-6^-6^|
D|--4*-2*-7--6--6-|
A|--4--2--5--4--4-| 
E|--2--0----------| 
pm  ..........
[ Tab from: http://www.guitartabs.cc/tabs/n/new_found_glory/happy_together_tab.html ]
chorus:
e|----------------|
B|----------------|
G|-----6^---------|
D|--4^-6--4^-7^---|
A|--4--4--4--7----|
E|--2-----2--5----|

Outro:
e|----------------------------------------------------|
B|----------------------------------------------------|
G|-----6^----6^----6^----6^----6^----6^----6^----6---6|
D|--4^-6--4^-6--4^-6--4^-6--4^-6--4^-6--4^-6--4^-6---6|
A|--4--4--4--4--4--4--4--4--4--4--4--4--4--4--4--4---4|
E|--2-----2-----2-----2-----2-----2-----2-----2-------|

===============================================================================
Comments