New Found Glory - Goonies Chords & Tabs

 

Goonies Chords & Tabs

New Found Glory Chords & Tabs

Version: 1 Type: Tab 0 ratings
1 star 2 stars 3 stars 4 stars 5 stars
comments

Goonies Tab

Artist:A New Found Glory
Song: The Goonies "R" Good Enough
Cd:From your screen to the stereo
Tabbed By: Zach 

Buy the album and learn the songs it will impress all your friends!


intro 
e|------------------------------ 
B|------------------------------ 
G|----6------------------------- 
D|----6----6---9---------------- 
A|----4----6---9---------------- 
E|-------- -4---7--------------- 

verse 
[ Tab from: http://www.guitartabs.cc/tabs/n/new_found_glory/goonies_tab.html ]
e|---------------------------- 
B|---------------------------- 
G|------4-6---4--------------- 
D|--2--4-6---4---------------- 
A|--2--2-4---2---------------- 
E|--0------------------------- 

pre chorus 

e|------------------------| 
B|------------------------| 
G|--2---4-----------------| 
D|--2---4---2---4-6-------| 
A|--0---2---2---4-6-------| 
E|----------0---2-4-------| 

chorus 

e|----------------------------- 
B|----------------------------- 
G|----------2--4--------2------ 
D|--2---6---2--4----6---2------ 
A|--2---6---0--2----6---0------ 
E|--0---4-----------4---------- 
Comments