New Found Glory - Glory Of Love Chords & Tabs

 

Glory Of Love Chords & Tabs

New Found Glory Chords & Tabs

Version: 1 Type: Tab 0 ratings
1 star 2 stars 3 stars 4 stars 5 stars
comments

Glory Of Love Tab

Artist:A New Found Glory
Song: Glory Of Love
Cd:From your screen to the stereo
Tabbed By: Zach 

Buy the album and learn the songs it will impress all your friends!

Intro/verse: 
--------------------------
--------------------------
-5------55------55-4------
-5--5---55--33--55-4------
-3--5---33--33--33-2------
----3-------11------------

verse 2:
--------------------------
--------------------------
-5------------------------
-5--7--8--5--6--8--6--8---
-3--7--8--5--6--8--6--8---
----5--6--3--4/-6\-4/-6---
[ Tab from: http://www.guitartabs.cc/tabs/n/new_found_glory/glory_of_love_tab.html ]
chorus:
----------------------------------------------------------------
----------------------------------------------------------------
-5-----------5-----7----------5-5-------------7-----5-----------
-5--3--2--5--5--7--7--5--7-7--5-5--3-3--6--7--7--5--5----3--5---
-3--3--2--5--3--7--5--5--7-7--3-3--3-3--6--7--5--5--3----3--5---
----1--0--3-----5-----3--5-5-------1-1--4--5-----3-------1--3---

bridge:
---------------------------------------------------------------------------
-------------------------------------------------------------*clap*--------
-------7--8--7--8--7---------7--8--10--8---------------5-5-----------5---5-
-3--6--7--8--7--8--7---3--6--7--8--10--8---5-----5-----5-5-----------5---5-
-3--6--5--6--5--6\-5---3--6--5--6--8---6---5-----5-----3-3-----------33333-
-1--4------------------1--4----------------3-----3-------------------------
Comments