New Found Glory - Forget My Name Chords & Tabs

 

Forget My Name Chords & Tabs

New Found Glory Chords & Tabs

Version: 2 Type: Tab 0 ratings
1 star 2 stars 3 stars 4 stars 5 stars
comments

Forget My Name Tab

there is no good tabs on this song so i decided to tab it. Im not totally sure
its 100% correct but just mess around with it and youll figure it all out.

pm.=palm mute
x=mute with fretting hand

intro (slight distortion)
e-------------------------------------
b-------------------------------------
g-44-xx-------------------------------x4
d-44-xx-4-xx-666-2222222222-------------
a-22-xx-4-xx-666-2222222222-------------
e-------2-xx-444-0000000000-------------

verse (*distortion)
e-------------------------------------------------------------
b-------------------------------------------------------------
g-44-44-4-xxxxxx-44444444-------------------------------------
d-44-44-4-xxxxxx-44444444-22222222--6666666-9-4444444-9-------x2
a-22-22-2-xxxxxx-22222222-22222222--6666666-9-4444444-9-------
e-------------------------00000000--4444444-7-2222222-7-------
[ Tab from: http://www.guitartabs.cc/tabs/n/new_found_glory/forget_my_name_tab_ver_2.html ]
pre-chorus (*distortion)
e------------------------------------------------------------------------------
b------------------------------------------------------------------------------
g-6-6-666666--9-9-999999------------------------6-6-666666-9-9-999999----------
d-6-6-666666--9-9-999999-6-6-666666-4-4-444444--6-6-666666-9-9-999999-66666666-
a-4-4-444444--7-7-777777-6-6-666666-4-4-444444--4-4-444444-7-7-777777-66666666-
e------------------------4-4-444444-2-2-222222------------------------44444444-
pm  .           .          .          .           .          .

e-----------------------
b-----------------------
g-----------------------
d-4444-xx-4444----------
a-4444-xx-4444----------
e-2222-xx-2222----------

chorus same as intro wih (*distorion)

verse

pre-chorus

chorus 

breakdown (*distortion)
e-----------------------------------------------------------------------------
b-----------------------------------------------------------------------------
g-44-44-4-xxxxxx-4-----------444-444---------444-444------------444-444-------
d-44-44-4-xxxxxx-4-let-ring--444-444-222-444-444-444-222-4xxxxx-444-444-222---
a-22-22-2-xxxxxx-2-----------222-222-222-444-222-222-222-4xxxxx-222-222-222---
e------------------------------------000-222---------000-2xxxxx---------000---

e------------------------
b------------------------
g------------------------
d-4xxxxxxxx44444444444---
a-4xxxxxxxx44444444444---
e-2xxxxxxxx22222222222---

outro (*distortion)
e-----------------------------
b-454242-2--4545242-2---------
g-------4----------4-4--------x2
d---------4-------------------
a-----------------------------
e-----------------------------

thats all i think its almost right please tell me if i made any mistakes.
Comments