New Found Glory - Forget My Name Chords & Tabs

 

Forget My Name Chords & Tabs

New Found Glory Chords & Tabs

Version: 1 Type: Tab 0 ratings
1 star 2 stars 3 stars 4 stars 5 stars
comments

Forget My Name Tab

What's up guys? I sure hope this tab makes it, the last 3 i have done haven't! 
This is a great song! NEW FOUND GLORY ROCKS!!

ALright there are 3 different riffs, there is a breakdown at about (2:10)--they 
play the 2nd riff there with a different strum pattern, i am sure you can figure 
out the pattern-not too hard!

1st riff (played during intro and chorus)
I AM NOT REALLY SURE HOW TO EXPLAIN THE STRUM PATTERN ONCE AGAIN,
YOU CAN FIGURE IT OUT! WHEN "FORGET MY NAME", YOU PLAY A B5 ON "NAME"

e----------------------------------
B----------------------------------
G----------------------------------
D-4--4--6--------------------------
A-2--4--6--2-----------------------
E----2--4--0-----------------------
[ Tab from: http://www.guitartabs.cc/tabs/n/new_found_glory/forget_my_name_tab.html ]
2ND RIFF--PLAYED IN THE VERSE AND 
BREAKDOWN-STRUM EACH CHORD 12X 
EACH WHEN PLAYED IN VERSE

e------------------------------
B------------------------------
G------------------------------
D-4----------------------------
A-2--2--6--4-------------------
E----0--4--2-------------------

3RD RIFF-PLAYED IN BRIDGE 
("I've been gone for a long time")
ONCE AGAIN-Figure Out the Strum pattern

e----------------------------
B----------------------------
G----------------------------
D-6--9-----------------------
A-4--7--6--4-----------------
E-------4--2-----------------

ALRIGHT THOSE ARE ALL THE RIFFS IN THE SONG-NOW FOR THE SONG ORDER

RIFF 1(4X)-INTRO
RIFF 2(2X)-VERSE
RIFF 3(2X)-BRIDGE
RIFF 1(4X)-CHORUS
RIFF 2(2X)-VERSE
RIFF 3(2X)-BRIDGE
RIFF 1(4X)-CHORUS
RIFF 2(2X)-BREAKDOWN
RIFF1 (8X)-CHORUS-OUTRO

THAT IS IT! AND THAT ENDING SOLO IS EASY, I MIGHT PUT IT UP LATER IF I GET THE 
CHANCE!
Comments