New Found Glory - Forget My Name Chords & Tabs

 

Forget My Name Chords & Tabs

New Found Glory Chords & Tabs

Version: 1 Type: Bass Tab 0 ratings
1 star 2 stars 3 stars 4 stars 5 stars
comments

Forget My Name Bass Tab

Band         -  New Found Glory
Song Title   -  Forget My Name
Bass Tuning  -  Standard (GDAE)
Tabbed by    -  Nicholas (think_blink_182@hotmail.com)

Verse
G|-------------------------------------------------------------------|
D|--------------------------------------------------------------2-2--|
A|--2-2-2-2-2-2-2-2-----------------------------2-2------------------|
E|------------------0-0-0-0-0-0-0-0-4-4-4-4-4-4-----2-2-2-2-2-2------|

Pre-Chorus
G|-----------------------------------|
D|-----------------------------------|
A|--4-4-4-4-7-7-7-7------------------|
E|------------------4-4-4-4-2-2-2-2--|
[ Tab from: http://www.guitartabs.cc/tabs/n/new_found_glory/forget_my_name_btab.html ]
Chorus
G|---------------------------|-----------------------|
D|---------------------------|-----------------------| <-- "forget my name"
A|--2-2-2-2------------------|--2-2--2-2--2-2-2-2-2--|
E|----------2-2-4-4-0-0-0-0--|-----------------------|

Interlude
G|-----|-----------------------------------------|
D|-----|-----------------------------------------|
A|--2--|--2-2--2-2-------------------------------|
E|-----|-----------0-0--0-0--4-4--4-4--0-0--2-2--|

Outro
G|---------------------------|
D|---------------------------|
A|--2-2-2-2------------------|
E|----------2-2-4-4-0-0-0-0--|

ORDER
Chorus (no bass)
Verse (2x)
Pre-Chorus (2x)
Chorus (4x)
Verse (2x)
Pre-Chorus (2x)
Chorus (4x)
Interlude (2x)
Chorus (4x)
Outro (4x)
End On (E)

Enjoy!
Comments