New Found Glory - Forget Everything Chords & Tabs

 

Forget Everything Chords & Tabs

New Found Glory Chords & Tabs

Version: 2 Type: Tab 0 ratings
1 star 2 stars 3 stars 4 stars 5 stars
comments

Forget Everything Tab

Here it is off the American wedding soundtrack 
Youll have to figure out the timing for yourself 

Intro
-----------------------------------------
-----------------------------------------
-----------------7-7-7-x-----------7-7---Repeat 2x
-------7-7-7--x--7-7-7-x--2-2-2 x--7-7---
-------7-7-7--x--5-5-5-x--2-2-2-x--5-5---
-------5-5-5--x-----------0-0-0-x--------
              p.m.               p.m.
Verse

--------------------------------------------
--------------------------------------------
--------------------------------------------Repete 4x
-x-x--x-7----x-x-x--4---x-x-x--2---x-x-x-2--
-x-x--x-7----x-x-x--4---x-x-x--2---x-x-x-2--
-x-x--x-5----x-x-x--2---x-x-x--0---x-x-x-0--

Pre-Chorus

--------------------------------------------
-------------------------------------------- Repete 2x
------7----7----4---------------------------
------7----7----4---------------------------
------5----4----2---------------------------
--------------------------------------------

Chorus
[ Tab from: http://www.guitartabs.cc/tabs/n/new_found_glory/forget_everything_tab_ver_2.html ]
-----------------------------------------
-----------------------------------------
----------------7-7-7------------7-7-7---Repete 4x
-------7-7-7----7-7-7---2-2-2- --7-7-7---
-------7-7-7----5-5-5---2-2-2----5-5-5---
-------5-5-5------------0-0-0------------

Verse
Pre-Chorus
Chorus

Bridge
--------------------------------
--------------------------------
------4-x-4---7-x-7----4-4--7-7- Repete 2x
------4-x-4---7-x-7----4-4--7-7- 
------2-x-2---4-x-4----2-2--4-4- 
--------------------------------

Pre-chorus
Chorus

Outro
-----------------------------------------
-----------------------------------------
----------------7-7-7------------7-7-7---
-------7-7-7----7-7-7---2-2-2- --7-7-7---
-------7-7-7----5-5-5---2-2-2----5-5-5---
-------5-5-5------------0-0-0------------

                               
-----------------------------------------------
-----------------------------------------------
----------------7-7-7------------7-7-o---------
-------7-7-7----7-7-7---2-2--o --7-7-o---xxx7--
-------7-7-7----5-5-5---2-2--o---5-5-o---xxx7--
-------5-5-5------------0-0--o-----------xxx5--
                            Pause Pause  PM


A tab by Eric R
Comments