New Found Glory - Failures Not Flattering Chords & Tabs

 

Failures Not Flattering Chords & Tabs

New Found Glory Chords & Tabs

Version: 5 Type: Tab 0 ratings
1 star 2 stars 3 stars 4 stars 5 stars
comments

Failures Not Flattering Tab

   
Tabbed by:GuitarMaster41
E-Mail:LukeMaster41@aol.com

Artist:New Found Glory
Album:Catalyst
Song:Failure's Not Flattering

This tab is completely 100% correct.  No offense, but every other tab for this song is
off.  This is a really good song.  It isn't too hard to play at all when you are learning
it and you mostly need to listen to the real song for timing.  Also, you don't have to
tune down your strings to play it if you are too lazy.  Enjoy playing it and have fun!

Tuning:DAFCGD (Tune all strings down one step.)

/ = SLIDE UP
\ = SLIDE DOWN
h = HAMMER ON
p = PULL OFF
. = PALM MUTE

Q = 152

Intro:

Guitar 1

"What's your problem..."
D|------------------------------------------------------------------------|
A|------------------------------------------------------------------------|
F|--------------9-9-9-9-9-9-9-9-9-9---------------------------------------|
C|-----------9--x-x-x-x-x-x-x-x-x-x--9-9-9-9-9----9-9-9-9-9---------------|
G|-7-7-7-7-7----7-7-7-7-7-7-7-7-7-7--7-7-7-7-7----6-6-6-6-6-------------7-|
D|--------------5-5-5-5-5-5-5-5-5-5--9-9-9-9-9-0--7-7-7-7-7--4-4--4--4--5-|
                                                             . .  .  .

Guitar 2
D|------------------------------------------------------------------------|
A|------------------------------------------------------------------------|
F|------------------------------------------------------------------------|
C|------------------------------------------------------------------------|
G|------------------------------------------------------------------------|
D|------------------------------------------------------------------------|


Guitar 1

"Go and blow..."
D|--------------------------------------------------|
A|--------------------------------------------------|
F|--------------9-9-9-9-9-9-9-9-9-9-----------------|
C|-----------9--x-x-x-x-x-x-x-x-x-x--9-9-9-9-9----9-|
G|-7-7-7-7-7----7-7-7-7-7-7-7-7-7-7--7-7-7-7-7----6-|
D|--------------5-5-5-5-5-5-5-5-5-5--9-9-9-9-9-0--7-|

Guitar 2
D|--------------------------------------------------|-14-11----|
A|--------------------------------------------------|-------12-|
F|--------------------------------------------------|----------|
C|--------------------------------------------------|----------|
G|--------------------------------------------------|----------|
D|--------------------------------------------------|----------|


Interlude:

Guitar 1
D|----------------------------------|----------------------------------|
A|----------------------------------|----------------------------------|
F|----------------------------------|----------------------------------|
C|--------------2-2-2-2-2-2-2-2-2-2-|--------------2-2-2-2-2-2-2-2-2-2-|
G|-2-2-2-2-2-2--0-0-0-0-0-0-0-0-0-0-|-4-4-4-4-4----0-0-0-0-0-0-0-0-0-0-|
D|-0-0-0-0-0-0----------------------|-2-2-2-2-2-0----------------------|


Guitar 2
D|-12--11------9--------------------------------------|
A|---------12-----9--10--12----9----10--12----9-------|
F|-------------------------------------------------11-|
C|----------------------------------------------------|
G|----------------------------------------------------|
D|----------------------------------------------------|


Guitar 3 (Hold the first note throught out the measure.)
D|-12-------------------------------------------------|-14-11----|
A|----------------------------------------------------|-------12-|
F|----------------------------------------------------|----------|
C|----------------------------------------------------|----------|
G|----------------------------------------------------|----------|
D|----------------------------------------------------|----------|


Guitar 1
D|----------------------------------|----------------------------------|
A|----------------------------------|----------------------------------|
F|----------------------------------|----------------------------------|
C|--------------2-2-2-2-2-2-2-2-2-2-|--------------2-2-2-2-2-2-2-2-2-2-|
G|-2-2-2-2-2-2--0-0-0-0-0-0-0-0-0-0-|-4-4-4-4-4----0-0-0-0-0-0-0-0-0-0-|
D|-0-0-0-0-0-0----------------------|-2-2-2-2-2-0----------------------|


Guitar 2
D|-12--11------9---------------------------------------------|
A|---------12-----9--10--12----9----10--12----9--------10--9-|
F|-------------------------------------------------11--------|
C|-----------------------------------------------------------|
G|-----------------------------------------------------------|
D|-----------------------------------------------------------|


Guitar 3 (Hold the first note throught out the measure.)
D|-12--------------------------------------------------------|
A|-----------------------------------------------------------|
F|-----------------------------------------------------------|
C|-----------------------------------------------------------|
G|-----------------------------------------------------------|
D|-----------------------------------------------------------|


Verse:

Guitars 1 & 2

"Don't leave this..."
D|----------------------------------|----------------------------------|
A|----------------------------------|----------------------------------|
F|----------------------------------|----------------------------------|
C|------------------2-2-2-2-2-2-2-2-|-6-6-6-6-4-4-4-4--2-2-2-2-2-2-2-2-|
G|-2-2-2-2-2-2-2-2--0-0-0-0-0-0-0-0-|-4-4-4-4-2-2-2-2--0-0-0-0-0-0-0-0-|
D|-0-0-0-0-0-0-0-0------------------|----------------------------------|
   . . . . . . . .  . . . . . . . .   . . . . . . . .  . . . . . . . .

Guitars 1 & 2

"Shot hit with..."
D|----------------------------------|----------------------------------|
A|----------------------------------|----------------------------------|
F|----------------------------------|----------------------------------|
C|------------------2-2-2-2-2-2-2-2-|-6-6-6-6-4-4-4-4--2-2-2-2-2-2-2-2-|
G|-2-2-2-2-2-2-2-2--0-0-0-0-0-0-0-0-|-4-4-4-4-2-2-2-2--0-0-0-0-0-0-0-0-|
D|-0-0-0-0-0-0-0-0------------------|----------------------------------|
   . . . . . . . .  . . . . . . . .   . . . . . . . .  . . . . . . . .

Guitars 1 & 2

"The first stone..."
D|----------------------------------|----------------------------------|
A|----------------------------------|----------------------------------|
F|----------------------------------|----------------------------------|
C|----------------------2---2-------|-6-6-6-6-4-4-4-4------2---2-------|
G|-----2---2--------0-0-0-0-0-0-0-0-|-4-4-4-4-2-2-2-2--0-0-0-0-0-0-0-0-|
D|-0-0-0-0-0-0-0-0------------------|----------------------------------|
   . .   .   . . .  . .   .   . . .   . . . . . . . .  . .   .   . . . 

Guitar 1

"What you want..."
D|----------------------------------|--------------------------|------|
A|----------------------------------|--------------------------|------|
F|----------------------------------|--------------------------|-6--8-|
C|----------------------2---2-------|-6-6-6-6-4-4-4-4--2-2-2-2-|-x--x-|
G|-----2---2--------0-0-0-0-0-0-0-0-|-4-4-4-4-2-2-2-2--0-0-0-0-|-4--6-|
D|-0-0-0-0-0-0-0-0------------------|--------------------------|-5--7-|
   . .   .   . . .  . .   .   . . .   . . . . 

Guitar 2
D|----------------------------------|--------------------------|-9--11-|
A|----------------------------------|--------------------------|-x---x-|
F|----------------------------------|--------------------------|-6---8-|
C|----------------------2---2-------|-6-6-6-6-4-4-4-4--2-2-2-2-|-------|
G|-----2---2--------0-0-0-0-0-0-0-0-|-4-4-4-4-2-2-2-2--0-0-0-0-|-------|
D|-0-0-0-0-0-0-0-0------------------|--------------------------|-------|
   . .   .   . . .  . .   .   . . .   . . . . 

Prechorus:

Guitar 1

"Oh..."
D|-----------------|-----------|-----------------|
A|-----------------|-----------|-----------------|
F|-9-9-9-9-9-9-9-9-|-9-9--6--8-|-9-9-9-9-9-9-9-9-|
C|-x-x-x-x-x-x-x-x-|-x-x--x--x-|-x-x-x-x-x-x-x-x-|
G|-7-7-7-7-7-7-7-7-|-7-7--4--6-|-7-7-7-7-7-7-7-7-|
D|-9-9-9-9-9-9-9-9-|-5-5--5--7-|-9-9-9-9-9-9-9-9-|


Guitar 2
D|-12-12-12-12-12-12-12-12-|-9--11-|-12-12-12-12-12-12-12-12-|
A|--x--x--x--x--x--x--x--x-|-x---x-|--x--x--x--x--x--x--x--x-|
F|--9--9--9--9--9--9--9--9-|-6---8-|--9--9--9--9--9--9--9--9-|
C|-------------------------|-------|-------------------------|
G|-------------------------|-------|-------------------------|
D|-------------------------|-------|-------------------------|


Chorus:

Guitars 1 & 2

"What's your problem..."
D|----------------------------------------------------------------------|
A|----------------------------------------------------------------------|
F|-9-9-9-9-9-9--9-9-9-9-9-9-9-9-9---------------------------------------|
C|-9-9-9-9-9-9--x-x-x-x-x-x-x-x-x----9-9-9-9-9-9--9-9-9-9-9-------------|
G|-7-7-7-7-7-7--7-7-7-7-7-7-7-7-7-0--7-7-7-7-7-7--6-6-6-6-6-----------7-|
D|--------------5-5-5-5-5-5-5-5-5-0--9-9-9-9-9-9--7-7-7-7-7--x-x-4-4--5-|
                                                                 . .

Guitars 1 & 2

"Go and blow..."
D|--------------------------------------------------------------------|
A|--------------------------------------------------------------------|
F|-9-9-9-9-9-9--9-9-9-9-9-9-9-9-9-------------------------------------|
C|-9-9-9-9-9-9--x-x-x-x-x-x-x-x-x----9-9-9-9-9-9--9-9-9-9-9-9-9-9-9-9-|
G|-7-7-7-7-7-7--7-7-7-7-7-7-7-7-7-0--7-7-7-7-7-7--6-6-6-6-6-6-6-6-6-6-|
D|--------------5-5-5-5-5-5-5-5-5-0--9-9-9-9-9-9--7-7-7-7-7-7-7-7-7-7-|


Guitar 3
D|---------------------------------------------------------|-14-11----|
A|---------------------------------------------------------|-------12-|
F|---------------------------------------------------------|----------|
C|---------------------------------------------------------|----------|
G|---------------------------------------------------------|----------|
D|---------------------------------------------------------|----------|


Interlude:

Guitar 1
D|----------------------------------|----------------------------------|
A|----------------------------------|----------------------------------|
F|----------------------------------|----------------------------------|
C|--------------2-2-2-2-2-2-2-2-2-2-|--------------2-2-2-2-2-2-2-2-2-2-|
G|-2-2-2-2-2-2--0-0-0-0-0-0-0-0-0-0-|-4-4-4-4-4----0-0-0-0-0-0-0-0-0-0-|
D|-0-0-0-0-0-0----------------------|-2-2-2-2-2-0----------------------|


Guitar 2
D|-12--11------9--------------------------------------|
A|---------12-----9--10--12----9----10--12----9-------|
F|-------------------------------------------------11-|
C|----------------------------------------------------|
G|----------------------------------------------------|
D|----------------------------------------------------|


Guitar 3 (Hold the first note throught out the measure.)
D|-12-------------------------------------------------|-14-11----|
A|----------------------------------------------------|-------12-|
F|----------------------------------------------------|----------|
C|----------------------------------------------------|----------|
G|----------------------------------------------------|----------|
D|----------------------------------------------------|----------|


Guitar 1
D|----------------------------------|----------------------------------|
A|----------------------------------|----------------------------------|
F|----------------------------------|----------------------------------|
C|--------------2-2-2-2-2-2-2-2-2-2-|--------------2-2-2-2-2-2-2-2-2-2-|
G|-2-2-2-2-2-2--0-0-0-0-0-0-0-0-0-0-|-4-4-4-4-4----0-0-0-0-0-0-0-0-0-0-|
D|-0-0-0-0-0-0----------------------|-2-2-2-2-2-0----------------------|


Guitar 2
D|-12--11------9---------------------------------------------|
A|---------12-----9--10--12----9----10--12----9--------10--9-|
F|-------------------------------------------------11--------|
C|-----------------------------------------------------------|
G|-----------------------------------------------------------|
D|-----------------------------------------------------------|


Guitar 3 (Hold the first note throught out the measure.)
D|-12--------------------------------------------------------|
A|-----------------------------------------------------------|
F|-----------------------------------------------------------|
C|-----------------------------------------------------------|
G|-----------------------------------------------------------|
D|-----------------------------------------------------------|

[ Tab from: http://www.guitartabs.cc/tabs/n/new_found_glory/failures_not_flattering_tab_ver_5.html ]
Verse
Prechorus
Chorus


Interlude:

Guitar 1
D|----------------------------------|----------------------------------|
A|----------------------------------|----------------------------------|
F|----------------------------------|----------------------------------|
C|--------------2-2-2-2-2-2-2-2-2-2-|--------------2-2-2-2-2-2-2-2-2-2-|
G|-2-2-2-2-2-2--0-0-0-0-0-0-0-0-0-0-|-4-4-4-4-4----0-0-0-0-0-0-0-0-0-0-|
D|-0-0-0-0-0-0----------------------|-2-2-2-2-2-0----------------------|


Guitar 2
D|-0h2--2-2-2-0-0-0-0-4-4-4-0-2-2-2-|-0h2--2-2-2-0-0-0-0-4-4-4-0-2-2-2-|
A|-0----0-0-0-0-0-0-0-0-0-0-0-0-0-0-|-0----0-0-0-0-0-0-0-0-0-0-0-0-0-0-|
F|----------------------------------|----------------------------------|
C|----------------------------------|----------------------------------|
G|----------------------------------|----------------------------------|
D|----------------------------------|----------------------------------|


Guitar 1
D|----------------------------------|----------------------------------|
A|----------------------------------|----------------------------------|
F|----------------------------------|----------------------------------|
C|--------------2-2-2-2-2-2-2-2-2-2-|--------------2-2-2-2-2-2-2-2-2-2-|
G|-2-2-2-2-2-2--0-0-0-0-0-0-0-0-0-0-|-4-4-4-4-4----0-0-0-0-0-0-0-0-0-0-|
D|-0-0-0-0-0-0----------------------|-2-2-2-2-2-0----------------------|


Guitar 2
D|-0h2--2-2-2-0-0-0-0-4-4-4-0-2-2-2--0-2-2-2-2-0-|-----------|-0-0-0-0-|
A|-0----0-0-0-0-0-0-0-0-0-0-0-0-0-0--0-0-0-0-0-0-|-----------|-0-0-0-0-|
F|-----------------------------------------------|-----------|---------|
C|-----------------------------------------------|-----------|---------|
G|-----------------------------------------------|-----------|---------|
D|-----------------------------------------------|-----------|---------|


Bridge:

Guitar 1

"Get it together..."
D|----------------------------------|----------------------------------|
A|----------------------------------|----------------------------------|
F|----------------------------------|----------------------------------|
C|--------------2-2-2-2-2-2-2-2-2-2-|--------------2-2-2-2-2-2-2-2-2-2-|
G|-2-2-2-2-2-2--0-0-0-0-0-0-0-0-0-0-|-4-4-4-4-4----0-0-0-0-0-0-0-0-0-0-|
D|-0-0-0-0-0-0----------------------|-2-2-2-2-2-0----------------------|


Guitar 2
D|----------------------------------|---------------------------------|
A|----------------------------------|---------------------------------|
F|----------------------------------|---------------------------------|
C|-4-4-4-4-4-2--2-2-2-6-6-6-2-4-4-4-|-2-4-4-4-4-2-2-2-2-6-6-6-2-4-4-4-|
G|----------------------------------|---------------------------------|
D|----------------------------------|---------------------------------|


Guitar 1

"When will you..."
D|----------------------------------|----------------------|------|
A|----------------------------------|----------------------|------|
F|----------------------------------|----------------------|-6--8-|
C|--------------2-2-2-2-2-2-2-2-2-2-|--------------2-2-2-2-|-x--x-|
G|-2-2-2-2-2-2--0-0-0-0-0-0-0-0-0-0-|-4-4-4-4-4----0-0-0-0-|-4--6-|
D|-0-0-0-0-0-0----------------------|-2-2-2-2-2-0----------|-5--7-|

D|-------------------------------------------------|------|-9--11-|
A|-------------------------------------------------|------|-x---x-|
F|-------------------------------------------------|------|-6---8-|
C|-2-4-4-4-4-2--2-2-2-6-6-6-2-4-4-4--2-4-4-4-4-2-2-|------|-------|
G|-------------------------------------------------|------|-------|
D|-------------------------------------------------|------|-------|


Prechorus (Play it twice.)


Interlude:

Guitar 1
D|-------------------------------------------------------------------------|
A|-------------------------------------------------------------------------|
F|---------------------14--13--11--9--9-9-9-9-9----8-8-8-8-8---------------|
C|-----------9----------x---x---x--x--x-x-x-x-x----x-x-x-x-x---------------|
G|-7-7-7-7-7----7-7-7--12--11---9--7--7-7-7-7-7----6-6-6-6-6-------------7-|
D|--------------5-5-5-----------------9-9-9-9-9-0--7-7-7-7-7--4-4--4--4--5-|

                                                              . .  .  .
Guitar 1
D|-----------------------------------------------------------------------|
A|-----------------------------------------------------------------------|
F|---------------------14--13--11--9--9-9-9----8-8-8---------------------|
C|-----------9----------x---x---x--x--x-x-x----x-x-x---------------------|
G|-7-7-7-7-7----7-7-7--12--11---9--7--7-7-7----6-6-6-------------------7-|
D|--------------5-5-5-----------------9-9-9----7-7-7----x-x-4-4--4--4--5-|
                                                            . .  .  .

Chorus:

Guitars 1 & 2

"What's your problem..."
D|----------------------------------------------------------------------|
A|----------------------------------------------------------------------|
F|-9-9-9-9-9-9--9-9-9-9-9-9-9-9-9---------------------------------------|
C|-9-9-9-9-9-9--x-x-x-x-x-x-x-x-x----9-9-9-9-9-9--9-9-9-9-9-------------|
G|-7-7-7-7-7-7--7-7-7-7-7-7-7-7-7-0--7-7-7-7-7-7--6-6-6-6-6-----------7-|
D|--------------5-5-5-5-5-5-5-5-5-0--9-9-9-9-9-9--7-7-7-7-7--x-x-4-4--5-|
                                                                 . .

Guitars 1 & 2

"Go and blow..."
D|-----------------------------------------------------------------|
A|-----------------------------------------------------------------|
F|-9-9-9-9-9-9--9-9-9-9-9-9-9-9-9----------------------------------|
C|-9-9-9-9-9-9--x-x-x-x-x-x-x-x-x----9-9-9-9-9-9--9-9-9-9----------|
G|-7-7-7-7-7-7--7-7-7-7-7-7-7-7-7-0--7-7-7-7-7-7--6-6-6-6----------|
D|--------------5-5-5-5-5-5-5-5-5-0--9-9-9-9-9-9--7-7-7-7--9-7-5-7-|


Guitars 1 & 2

"What's your problem..."
D|----------------------------------------------------------------------|
A|----------------------------------------------------------------------|
F|-9-9-9-9-9-9--9-9-9-9-9-9-9-9-9---------------------------------------|
C|-9-9-9-9-9-9--x-x-x-x-x-x-x-x-x----9-9-9-9-9-9--9-9-9-9-9-------------|
G|-7-7-7-7-7-7--7-7-7-7-7-7-7-7-7-0--7-7-7-7-7-7--6-6-6-6-6-----------7-|
D|--------------5-5-5-5-5-5-5-5-5-0--9-9-9-9-9-9--7-7-7-7-7--x-x-4-4--5-|
                                                                 . .    

Guitars 1 & 2

"Go and blow..."
D|--------------------------------------------------------------------|
A|--------------------------------------------------------------------|
F|-9-9-9-9-9-9--9-9-9-9-9-9-9-9-9-------------------------------------|
C|-9-9-9-9-9-9--x-x-x-x-x-x-x-x-x----9-9-9-9-9-9--9-9-9-9-9-9-9-9-9-9-|
G|-7-7-7-7-7-7--7-7-7-7-7-7-7-7-7-0--7-7-7-7-7-7--6-6-6-6-6-6-6-6-6-6-|
D|--------------5-5-5-5-5-5-5-5-5-0--9-9-9-9-9-9--7-7-7-7-7-7-7-7-7-7-|


Guitar 3
D|---------------------------------------------------------|-14-11----|
A|---------------------------------------------------------|-------12-|
F|---------------------------------------------------------|----------|
C|---------------------------------------------------------|----------|
G|---------------------------------------------------------|----------|
D|---------------------------------------------------------|----------|


Outro:

Guitar 1
D|----------------------------------|----------------------------------|
A|----------------------------------|----------------------------------|
F|----------------------------------|----------------------------------|
C|--------------2-2-2-2-2-2-2-2-2-2-|--------------2-2-2-2-2-2-2-2-2-2-|
G|-2-2-2-2-2-2--0-0-0-0-0-0-0-0-0-0-|-4-4-4-4-4----0-0-0-0-0-0-0-0-0-0-|
D|-0-0-0-0-0-0----------------------|-2-2-2-2-2-0----------------------|


Guitar 2
D|-12--11------9--------------------------------------|
A|---------12-----9--10--12----9----10--12----9-------|
F|-------------------------------------------------11-|
C|----------------------------------------------------|
G|----------------------------------------------------|
D|----------------------------------------------------|


Guitar 3 (Hold the first note throught out the measure.)
D|-12-------------------------------------------------|-14-11----|
A|----------------------------------------------------|-------12-|
F|----------------------------------------------------|----------|
C|----------------------------------------------------|----------|
G|----------------------------------------------------|----------|
D|----------------------------------------------------|----------|


Guitar 1
D|----------------------------------|----------------------------------|
A|----------------------------------|----------------------------------|
F|----------------------------------|----------------------------------|
C|--------------2-2-2-2-2-2-2-2-2-2-|--------------2-2-2-2-2-2-2-2-2-2-|
G|-2-2-2-2-2-2--0-0-0-0-0-0-0-0-0-0-|-4-4-4-4-4----0-0-0-0-0-0-0-0-0-0-|
D|-0-0-0-0-0-0----------------------|-2-2-2-2-2-0----------------------|


Guitar 2
D|-12--11------9---------------------------------------------|
A|---------12-----9--10--12----9----10--12----9--------10--9-|
F|-------------------------------------------------11--------|
C|-----------------------------------------------------------|
G|-----------------------------------------------------------|
D|-----------------------------------------------------------|


Guitar 3 (Hold the first note throught out the measure.)
D|-12--------------------------------------------------------|
A|-----------------------------------------------------------|
F|-----------------------------------------------------------|
C|-----------------------------------------------------------|
G|-----------------------------------------------------------|
D|-----------------------------------------------------------|


Guitar 1
D|----------------------------------|----------------------------------|
A|----------------------------------|----------------------------------|
F|----------------------------------|----------------------------------|
C|--------------2-2-2-2-2-2-2-2-2-2-|--------------2-2-2-2-2-2-2-2-2-2-|
G|-2-2-2-2-2-2--0-0-0-0-0-0-0-0-0-0-|-4-4-4-4-4----0-0-0-0-0-0-0-0-0-0-|
D|-0-0-0-0-0-0----------------------|-2-2-2-2-2-0----------------------|


Guitar 2
D|-12--11------9--------------------------------------|
A|---------12-----9--10--12----9----10--12----9-------|
F|-------------------------------------------------11-|
C|----------------------------------------------------|
G|----------------------------------------------------|
D|----------------------------------------------------|


Guitar 3 (Hold the first note throught out the measure.)
D|-12-------------------------------------------------|-14-11----|
A|----------------------------------------------------|-------12-|
F|----------------------------------------------------|----------|
C|----------------------------------------------------|----------|
G|----------------------------------------------------|----------|
D|----------------------------------------------------|----------|


Guitar 1
D|----------------------------------|----------------------------------|
A|----------------------------------|----------------------------------|
F|----------------------------------|----------------------------------|
C|--------------2-2-2-2-2-2-2-2-2-2-|--------------2-2-2-2-2-2-2-2-2-2-|
G|-2-2-2-2-2-2--0-0-0-0-0-0-0-0-0-0-|-4-4-4-4-4----0-0-0-0-0-0-0-0-0-0-|
D|-0-0-0-0-0-0----------------------|-2-2-2-2-2-0----------------------|


Guitar 2
D|-12--11------9---------------------------------------------|
A|---------12-----9--10--12----9----10--12----9--------10--9-|
F|-------------------------------------------------11--------|
C|-----------------------------------------------------------|
G|-----------------------------------------------------------|
D|-----------------------------------------------------------|


Guitar 3 (Hold the first note throught out the measure.)
D|-12--------------------------------------------------------|
A|-----------------------------------------------------------|
F|-----------------------------------------------------------|
C|-----------------------------------------------------------|
G|-----------------------------------------------------------|
D|-----------------------------------------------------------|


End On:

Guitars 1 & 2
D|---|
A|---|
F|---|
C|-2-|
G|-2-|
D|-0-|
Comments