New Found Glory - Failures Not Flattering Chords & Tabs

 

Failures Not Flattering Chords & Tabs

New Found Glory Chords & Tabs

Version: 4 Type: Tab 0 ratings
1 star 2 stars 3 stars 4 stars 5 stars
comments

Failures Not Flattering Tab

New Found Glory - Failure's Not Flattering
Tuning - Standard	

Oky doky guys I think I did ok in this tab I didn't put the
Palm muting because its easy to work out and you wont be 
trying to stick to it. Work it out yourselves and be creative.
Keep it rockin. I didn't do the melody for the synthesizers

Any questions n shit e-mail me at nfg_freak_182@hotmail.com

intro
e|-----------------------------------------|
B|-----------------------------------------|
G|-777-9-----------------------------------| x2 but on the second time finnish at 5
D|-777-7-5555-999-777--44-5----------------| 
A|-555---5555-999-777--44-5----------------|
E|-------3333-777-555--22-3----------------|
                       **
pre verse
e|-----------------------------------------|
B|-----------------------------------------|
G|-7777------------------------------------|
D|-7777-5555-9999-5555---------------------| x2
A|-5555-5555-9999-5555---------------------|
E|------3333-7777-3333---------------------|

verse 
e|-----------------------------------------|
B|-----------------------------------------|
G|-77777777----------4444-2222-------------|
D|-77777777-55555555-4444-2222-55555555----| x4
A|-55555555-55555555-2222-0000-55555555----|
E|----------33333333-----------33333333----|

Pre chorus
e|-----------------------------------------|
B|-----------------------------------------|
G|-----------------------------------------|
D|-11111111-7777-4-6-7777------------------| x1
A|-9-9-9-9--5555-2-4-5555------------------|
E|-----------------------------------------|
[ Tab from: http://www.guitartabs.cc/tabs/n/new_found_glory/failures_not_flattering_tab_ver_4.html ]
chorus
e|-----------------------------------------|
B|-----------------------------------------|
G|-777-9-----------------------------------|
D|-777-7-5555-999-777--44-5----------------| x4
A|-555---5555-999-777--44-5----------------|
E|-------3333-777-555--22-3----------------|

verse 
e|-----------------------------------------|
B|-----------------------------------------|
G|-77777777----------4444-2222-------------|
D|-77777777-55555555-4444-2222-55555555----| x4
A|-55555555-55555555-2222-0000-55555555----|
E|----------33333333-----------33333333----|

Pre chorus
e|-----------------------------------------|
B|-----------------------------------------|
G|-----------------------------------------|
D|-11111111-7777-4-6-7777------------------| x1
A|-9-9-9-9--5555-2-4-5555------------------|
E|-----------------------------------------|

chorus
e|-----------------------------------------|
B|-----------------------------------------|
G|-777-9-----------------------------------|
D|-777-7-5555-999-777--44-5----------------| x2
A|-555---5555-999-777--44-5----------------|
E|-------3333-777-555--22-3----------------|

Post chorus
e|-----------------------------------------|
B|-----------------------------------------|
G|-7777------------------------------------|
D|-7777-55555-2222-5555--------------------| x2
A|-5555-55555-2222-5555--------------------|
E|------33333-0000-3333--------------------|

interlude
e|-----------------------------------------|
B|-----------------------------------------|
G|-77777/14-12-11-9--7-4444-2222-----------|
D|-xxxxx/xx-xx-x--x--x-4444-2222-44/5------| x2
A|-55555/12-10-9--7--5-2222-0000-44/5------|
E|-------------------------------22/3------|
Comments