New Found Glory - Eyesore Chords & Tabs

 

Eyesore Chords & Tabs

New Found Glory Chords & Tabs

Version: 3 Type: Tab 0 ratings
1 star 2 stars 3 stars 4 stars 5 stars
comments

Eyesore Tab

New Found Glory - Eyesore acoustic

ok... i'm tired of everyone messing this simple song up...
this is the correct way to play it... if you have any questions
email me at Krazynyguy@hotmail.com

Standard Tuning

Intro/Verse

|---------------|
|---------------|
|---------6-----|
|-7---4---7---2-|
|-7---4---4---2-|
|-5---2-------0-|
[ Tab from: http://www.guitartabs.cc/tabs/n/new_found_glory/eyesore_tab_ver_3.html ]
Pre-chorus
"...say your name"

|---------------|
|---------------|
|-----7---------|
|-4---7---7---2-|
|-4---5---7---2-|
|-2-------5---0-|

Chorus
"...girl play on"

|---------------|
|---------------|
|-----7-------7-|
|-7---7---4---7-|
|-7---5---4---5-|
|-5-------2-----|

that's basically it... those are all the chord progressions...
it's an easy song... enjoy 
Comments