New Found Glory - Eyesore Chords & Tabs

 

Eyesore Chords & Tabs

New Found Glory Chords & Tabs

Version: 1 Type: Tab 0 ratings
1 star 2 stars 3 stars 4 stars 5 stars
comments

Eyesore Tab

Band:New Found Glory
Song:eysore
By:Chris Kopac ,sk8in37@aol.com
 this is the real way to play this song.
just listen to the song to figure out timing,and it sounds damn good too..

intro/verse

e|---------------------------|
B|---------------------------|
G|--------------6-/-4----------|
D|---7--/-4----6-/-4---------|
A|---7--/-4----4-/-2---------|
E|---5--/-2------------------|
  let it ring  

pre-chorus: "saayyyyyyy your name"
[ Tab from: http://www.guitartabs.cc/tabs/n/new_found_glory/eyesore_tab.html ]
e|------------------------|
B|-----------------------|
G|--6-------7----------------|
D|--6-(x8)--7-(x8)--*7-*7-----2-----|
A|--4-------5-------*7-*7-----2-(x8)----|
E|------------------*5-*5-----0------|
*=mute/pick scratch

chorus: "go girls,plaY on,the boys will stay even if your gone."

e|-------------------------|
B|------------------------|
G|----------7^-------------7----|
D|---7^----7^------4-------7-----|
A|---7^----5^------4-(x4)--5-(x4)-|
E|---5^------------2---------|

^=harmonic
Comments