New Found Glory - Eyesore Chords & Tabs

 

Eyesore Chords & Tabs

New Found Glory Chords & Tabs

Version: 2 Type: Bass Tab 0 ratings
1 star 2 stars 3 stars 4 stars 5 stars
comments

Eyesore Bass Tab

    New Found Glory
    Eyesore
    Tabbed by Ryan Trump - skaterpunk2k@aol.com
    Submitted by Matt V. - greasygrack@hotmail.com

    Intro
    G|------------------
    D|------------------
    A|-----------4----2-
    E|-5----2-----------

    Verse "forget me not..."       (second part "thats why...")
    G|------------------------------------|-------------
    D|------------------------------------|-------------
    A|-------------------4444454-22222222-|-7--77777777-
    E|-55555555-22222222------------------|-------------
[ Tab from: http://www.guitartabs.cc/tabs/n/new_found_glory/eyesore_btab_ver_2.html ]
    Prechorus "i say your name..."
    G|-----------------------------------
    D|------------------------0----------
    A|----------55555555---0----55555555-
    E|-55555555----------22-22-----------

    Chorus "girl, play on..."   (second part)
    G|--------------------|------------------
    D|-------44444444-----|------------------
    A|----55---------5555-|----55----4545----
    E|-55-----------------|-55----2-------5--

    Bass Solo
    G|--------------------------------------
    D|--------------------------------------
    A|------5---------5---------5-----------
    E|-5---------2---------5---------2----0-


    Song Order
    1x Intro
    2x Verse
    2x Prechorus
    3x Chorus
    1x Intro
    2x Verse
    2x Prechorus
    3x Chorus
    1x Bass Solo
    2x Prechorus
    3x Chorus
Comments