New Found Glory - Ex-miss Chords & Tabs

 

Ex-miss Chords & Tabs

New Found Glory Chords & Tabs

Version: 1 Type: Bass Tab 0 ratings
1 star 2 stars 3 stars 4 stars 5 stars
comments

Ex-miss Bass Tab

Song: Ex-Miss
Artist: New Found Glory
CD: Atticus Comp.
Tabbed By: Josh Becker (becker360@hotmail.com)

This tab was made in just one night... I decided to tab it after
failing to find it ANYWHERE. Please don't expect it to be 100%
perfect, just use it and change it how you think it should sound.

Intro:

G---------------------------------------------------------------------|
D---------------------------5555555555--------------------------------|
A----------33333333--77--55-------------------------------------------|
E-33333333------------------------------------------------------------|

Verse (* means hold, . is a shorter hold):
[ Tab from: http://www.guitartabs.cc/tabs/n/new_found_glory/ex_miss_btab.html ]
G----------------------------------------------------------------------|
D----------------------------------------------------------------------|
A----3*-----3*---------------3.0h3-0h3-0h3---------------3.0h3-0h3-0h3-|
E-3*----3*-----3.0h3-0h3-0h3---------------3.0h3-0h3-0h3---------------|

Pre-Chorus:

G---------------------------------------------------------------------|
D---------------------------------------------------------------------|
A--7777-9999--33333333--7777-9999--3-2-3-5----------------------------|
E---------------------------------------------------------------------|

Chorus:                                      Chorus End:

G----------------------------------------------------------------------|
D----------------------------------------------------------------------|
A----------33333333--77777777--55555555--(x2)-------------333333333355-|
E-33333333-------------------------------------------------------------|

Repeat Intro

Repeat Verse

Repeat Pre-Chorus

Repeat Chorus with Chorus End

Play Chorus during the "guitar solo"

Play Chorus twice then

G-------------------|
D-------------------|
A-33333333-3-2-3-5--|
E-------------------|
Comments