New Found Glory - Dressed To Kill Chords & Tabs

 

Dressed To Kill Chords & Tabs

New Found Glory Chords & Tabs

Version: 9 Type: Tab 0 ratings
1 star 2 stars 3 stars 4 stars 5 stars
comments

Dressed To Kill Tab

   
                      Dressed To Kill - New Found Glory

Tabbed By: Dylan Devoe
E-mail: dylandevoe@hotmail.com

Tuning: Drop D (DADGBe)
Legend: h = Hammer On
        p = Pull Off
        ! = Pay Attention
        PM = Palm Muted

Intro:
Guitar 1 (x4)
e|--------------------------------|
B|-10-10-10-10-h-12-12-12-12-p-10-|
G|--------------------------------|
D|--------------------------------|
A|--------------------------------|
D|--------------------------------|

e|----------12-9-8----------12-9-8----------12-9-8-|
B|-10-10-10--------10-10-10--------10-10-10--------|
G|-------------------------------------------------|
D|-------------------------------------------------|
A|-------------------------------------------------|
D|-------------------------------------------------|

Guitar 2 (Main)
e|-----------------|
B|-----------------|
G|-----------------|
D|-----------------|
A|-----------------|
D|-0-0-0-0-2-2-2-2-|

e|-----------------------------------------------------------------|
B|-----------------!-!-!-!-!-!-!-!---------------------------------|
G|-----------------------------------------------------------------|
D|-7-7-7-7-7-7-7-7-6-6-6-6-6-6-6-6-4-4-4-4-4-4-4-4-0-0-0-0-2-2-2-2-|
A|-7-7-7-7-7-7-7-7-7-7-7-7-7-7-7-7-4-4-4-4-4-4-4-4-0-0-0-0-2-2-2-2-|
D|-7-7-7-7-7-7-7-7-6-6-6-6-6-6-6-6-4-4-4-4-4-4-4-4-0-0-0-0-2-2-2-2-|

e|-------------------------------------------------------------------|
B|-----------------!-!-!-!-!-!-!-!-----------------------------------|
G|-------------------------------------------------------------------|
D|-7-7-7-7-7-7-7-7-6-6-6-6-6-6-6-6-4-4-4-4-4-4-4-4-0-0-0-0-2-2-2-2-7-|
A|-7-7-7-7-7-7-7-7-7-7-7-7-7-7-7-7-4-4-4-4-4-4-4-4-0-0-0-0-2-2-2-2-7-|
D|-7-7-7-7-7-7-7-7-6-6-6-6-6-6-6-6-4-4-4-4-4-4-4-4-0-0-0-0-2-2-2-2-7-|

Verse: x4
e|-----------------------------------------------------------------|
B|-----------------!-!-!-!-!-!-!-!---------------------------------|
G|-----------------------------------------------------------------|
D|-7-7-7-7-7-7-7-7-6-6-6-6-6-6-6-6-4-4-4-4-4-4-4-4-0-0-0-0-2-2-2-2-| !PM!
A|-7-7-7-7-7-7-7-7-7-7-7-7-7-7-7-7-4-4-4-4-4-4-4-4-0-0-0-0-2-2-2-2-|
D|-7-7-7-7-7-7-7-7-6-6-6-6-6-6-6-6-4-4-4-4-4-4-4-4-0-0-0-0-2-2-2-2-|
I Know It's hard For You...

Fill:
e|-----------------------------------------|
B|-----------------------------------------|
G|------------------------------!|--PM--|!-|
D|-0--4-2---0--4-2---0--4-2---0--4-4-4-4-2-|
A|-0--4-2---0--4-2---0--4-2---0--4-4-4-4-2-|
D|-0--4-2---0--4-2---0--4-2---0--4-4-4-4-2-|
And Your, Your Not Here...                                
[ Tab from: http://www.guitartabs.cc/tabs/n/new_found_glory/dressed_to_kill_tab_ver_9.html ]
Chorus: x4
e|-----------------------------------------------------------------|
B|-----------------!-!-!-!-!-!-!-!---------------------------------|
G|-----------------------------------------------------------------|
D|-7-7-7-7-7-7-7-7-6-6-6-6-6-6-6-6-4-4-4-4-4-4-4-4-0-0-0-0-2-2-2-2-|
A|-7-7-7-7-7-7-7-7-7-7-7-7-7-7-7-7-4-4-4-4-4-4-4-4-0-0-0-0-2-2-2-2-|
D|-7-7-7-7-7-7-7-7-6-6-6-6-6-6-6-6-4-4-4-4-4-4-4-4-0-0-0-0-2-2-2-2-|
I Can't Dream Anymore...

Guitar 1 (x2) [Cuts In Half Way Through Chorus]
e|----------12-9-8----------12-9-8----------12-9-8-|
B|-10-10-10--------10-10-10--------10-10-10--------|
G|-------------------------------------------------|
D|-------------------------------------------------|
A|-------------------------------------------------|
D|-------------------------------------------------|
I Can't Wake Anymore...

e|--------------------------------|
B|-10-10-10-10-h-12-12-12-12-p-10-|
G|--------------------------------|
D|--------------------------------|
A|--------------------------------|
D|--------------------------------|
In Your Arms...

2nd Verse: x4
e|-----------------------------------------------------------------|
B|-----------------!-!-!-!-!-!-!-!---------------------------------|
G|-----------------------------------------------------------------|
D|-7-7-7-7-7-7-7-7-6-6-6-6-6-6-6-6-4-4-4-4-4-4-4-4-0-0-0-0-2-2-2-2-| !PM!
A|-7-7-7-7-7-7-7-7-7-7-7-7-7-7-7-7-4-4-4-4-4-4-4-4-0-0-0-0-2-2-2-2-|
D|-7-7-7-7-7-7-7-7-6-6-6-6-6-6-6-6-4-4-4-4-4-4-4-4-0-0-0-0-2-2-2-2-|
Cheer Up My Friends I'll Say...

2nd Fill:
e|-----------------------------------------|
B|-----------------------------------------|
G|------------------------------!|--PM--|!-|
D|-0--4-2---0--4-2---0--4-2---0--4-4-4-4-2-|
A|-0--4-2---0--4-2---0--4-2---0--4-4-4-4-2-|
D|-0--4-2---0--4-2---0--4-2---0--4-4-4-4-2-|
And Your, Your Not Here...

~Repeat Chorus~ (x4)

Bridge:

e|-----------------------------------------------------------|
B|----------!|-!-!-!-!-!-!-!PM!-!-!-!-!-!-!-|!---------------|
G|---------------------------!-!-!-!-!-!-!-!-----------------|
D|-4--2--4-6-7-7-7-7-7-7-7-7-6-6-6-6-6-6-6-6-0-0-0-0-0-0-0-0-|
A|-4--2--4-6-7-7-7-7-7-7-7-7-7-7-7-7-7-7-7-7-0-0-0-0-0-0-0-0-|
D|-4--2--4-6-7-7-7-7-7-7-7-7-6-6-6-6-6-6-6-6-0-0-0-0-0-0-0-0-|

e|-------------------------------------------------|
B|-!|-!-!-!-!-!-!-!PM!-!-!-!-!-!-!-|!--------------|
G|-----------------!-!-!-!-!-!-!-!-----------------|
D|-7-7-7-7-7-7-7-7-6-6-6-6-6-6-6-6-0-0-0-0-0-0-0-0-|
A|-7-7-7-7-7-7-7-7-7-7-7-7-7-7-7-7-0-0-0-0-0-0-0-0-|
D|-7-7-7-7-7-7-7-7-6-6-6-6-6-6-6-6-0-0-0-0-0-0-0-0-|

e|-------------------------------------------------|
B|-!|-!-!-!-!-!-!-!PM!-!-!-!-!-!-!-|!--------------|
G|-----------------!-!-!-!-!-!-!-!-----------------|
D|-7-7-7-7-7-7-7-7-6-6-6-6-6-6-6-6-0-0-0-0-0-0-0-0-|
A|-7-7-7-7-7-7-7-7-7-7-7-7-7-7-7-7-0-0-0-0-0-0-0-0-|
D|-7-7-7-7-7-7-7-7-6-6-6-6-6-6-6-6-0-0-0-0-0-0-0-0-|

e|---------------------------------------------------------|
B|-!|-!-!-!-!-!-!-!PM!-!-!-!-!-!-!-|!----------------------|
G|-----------------!-!-!-!-!-!-!-!-------------------------|
D|-7-7-7-7-7-7-7-7-6-6-6-6-6-6-6-6-0-0-0-0-0-0-0-0-0-0-0-0-|
A|-7-7-7-7-7-7-7-7-7-7-7-7-7-7-7-7-0-0-0-0-0-0-0-0-0-0-0-0-|
D|-7-7-7-7-7-7-7-7-6-6-6-6-6-6-6-6-0-0-0-0-0-0-0-0-0-0-0-0-|

~Repeat Chorus~ (x4)

e|---------------|
B|---------------|
G|---------------|
D|-4--2--4-6-7-~-|
A|-4--2--4-6-7-~-|
D|-4--2--4-6-7-~-|
Cheer Up My Friends I'll Say...

That's All Folks!
Comments