New Found Glory - Dressed To Kill Chords & Tabs

 

Dressed To Kill Chords & Tabs

New Found Glory Chords & Tabs

Version: 4 Type: Tab 0 ratings
1 star 2 stars 3 stars 4 stars 5 stars
comments

Dressed To Kill Tab

Tabbed by marcus lubbock
New found glory dressed to kill

Intro x2
e------------------------------
b------------------------------
g-7-9--------------------------
D-7-9-7-7-7-7-7-7-7-7-4-4-4-4--
A-5-7-7-7-7-7-6-6-6-6-4-4-4-4--
E-----5-5-5-5-4-4-4-4-2-2-2-2--

Riff under intro x2
e--------12-12-10-9---------
b-----10--------------------
g-9-9-----------------------
D---------------------------
A---------------------------
E---------------------------
[ Tab from: http://www.guitartabs.cc/tabs/n/new_found_glory/dressed_to_kill_tab_ver_4.html ]
verse x4
e----------------------------------
b----------------------------------
g-9-9-9-9--------------------------
D-9-9-9-9-7-7-7-7-7-7-7-7-4-4-4-4--
A-7-7-7-7-7-7-7-7-6-6-6-6-4-4-4-4--
E---------5-5-5-5-4-4-4-4-2-2-2-2--

Chorus x2

e----------------------------------
b----------------------------------
g-9-9-9-9--------------------------
D-9-9-9-9-7-7-7-7-7-7-7-7-4-4-4-4--
A-7-7-7-7-7-7-7-7-6-6-6-6-4-4-4-4--
E---------5-5-5-5-4-4-4-4-2-2-2-2

this is basically it
Comments