New Found Glory - Dressed To Kill Chords & Tabs

 

Dressed To Kill Chords & Tabs

New Found Glory Chords & Tabs

Version: 3 Type: Tab 0 ratings
1 star 2 stars 3 stars 4 stars 5 stars
comments

Dressed To Kill Tab

   
"Dressed To Kill"
New Found Glory

Dropped D tuning low to high:D A D G B E
Intro: Gtr 1
e---------------------------------------------------------------------
b---------------------------------------------------------------------
g--9--11--------------------------------------------------------------
d--7--9---7-7-7-7-7-7-7-7--6-6-6-6-6-6-6--4-4-4-4-4-4-4--0-0-0-2-2-2--
a--5--7---7-7-7-7-7-7-7-7--6-6-6-6-6-6-6--4-4-4-4-4-4-4--0-0-0-2-2-2--
d---------7-7-7-7-7-7-7-7--6-6-6-6-6-6-6--4-4-4-4-4-4-4--0-0-0-2-2-2--

Gtr 2(palm mute)
e----------12-------10-9--
b-10-10-10----10-10-------
g-------------------------
d-------------------------
a-------------------------
d-------------------------
[ Tab from: http://www.guitartabs.cc/tabs/n/new_found_glory/dressed_to_kill_tab_ver_3.html ]
Verse (palm mute)
e---------------------------------------------------------------------
b---------------------------------------------------------------------
g---------------------------------------------------------------------
d-7-7-7-7-7-7-7-7--6-6-6-6-6-6-6-6--4-4-4-4-4-4-4-4--2-2-2-2-2-2-2-2--
a-7-7-7-7-7-7-7-7--6-6-6-6-6-6-6-6--4-4-4-4-4-4-4-4--2-2-2-2-2-2-2-2--
d-7-7-7-7-7-7-7-7--6-6-6-6-6-6-6-6--4-4-4-4-4-4-4-4--2-2-2-2-2-2-2-2--

Pre Chorus "You're...you're not here"
e---------------
b---------------
g---------------
d--0--4--2--0---
a--0--4--2--0---
d--0--4--2--0---

Chorus "I can't dream anymore..."
e---------------------------------------------------------------------
b---------------------------------------------------------------------
g---------------------------------------------------------------------
d-7-7-7-7-7-7-7--6-6-6-6-6-6-6-6--4-4-4-4-4-4-4-4--0-0-0-0--2-2-2-2---
a-7-7-7-7-7-7-7--6-6-6-6-6-6-6-6--4-4-4-4-4-4-4-4--0-0-0-0--2-2-2-2---
d-7-7-7-7-7-7-7--6-6-6-6-6-6-6-6--4-4-4-4-4-4-4-4--0-0-0-0--2-2-2-2---

Break down
e-------------------------------
b-------------------------------
g-------------------------------
d--7--6--0-0-0-0---0-0-0-0-0----
a--7--6--0-0-0-0---0-0-0-0-0----
d--7--6--0-0-0-0---0-0-0-0-0----

outro
e---------------
b---------------
g---------------
d--4--2--4-6-7--
a--4--2--4-6-7--
d--4--2--4-6-7--

Great song

Matt Nielsen rx_bandit46@hotmail.com



Comments