New Found Glory - Dressed To Kill Chords & Tabs

 

Dressed To Kill Chords & Tabs

New Found Glory Chords & Tabs

Version: 1 Type: Bass Tab 0 ratings
1 star 2 stars 3 stars 4 stars 5 stars
comments

Dressed To Kill Bass Tab

Intro
G|----------------------------------------------------------------------------|
D|----------------------------------------------------------------------------|
A|2---------------------------------------------------------------------------|
E|--2--777777--666666--444444--0--2---777777--666666--444444--0--2------------|

Verse part 1
G|----------------------------------------------------------------------------|
D|----------------------------------------------------------------------------|
A|----------------------------------------------------------------------------|
E|--777777--666666--444444--222222---7777777--666666--444444--222222----------|

Verse part 2
G|----------------------------------------------------------------------------|
D|----------------------------------------------------------------------------|
A|----------------------------------------------------------------------------|
E|--7-7-7-7-6-9-6-4-4-4-4-7-4-4-2-2-2-2--7-7-7-7-6-9-6-4-4-4-4-7-4-4-2-2-2-2--|

Verse part 3
G|----------------------------------------------------------------------------|
D|----------------------------------------------------------------------------|
A|----------------------------------------------------------------------------|
E|-4-2--000000--4-2--000000--4-2--000000--4-2---------------------------------|

Chorus
G|----------------------------------------------------------------------------|
D|----------------------------------------------------------------------------|
A|----------------------------------------------------------------------------|
E|--777777--666666--444444--0--2---777777--666666--444444--0--2---------------|

G|----------------------------------------------------------------------------|
D|----------------------------------------------------------------------------|
A|----------------------------------------------------------------------------|
E|--777777--666666--444444--0--2---777777--666666--444444--0--2---------------|

Verse
G|----------------------------------------------------------------------------|
D|----------------------------------------------------------------------------|
A|----------------------------------------------------------------------------|
E|--777777--666666--444444--222222---7777777--666666--444444--222222----------|

Verse part 2
G|----------------------------------------------------------------------------|
D|----------------------------------------------------------------------------|
A|----------------------------------------------------------------------------|
E|--7-7-7-7-6-9-6-4-4-4-4-7-4-4-2-2-2-2--7-7-7-7-6-9-6-4-4-4-4-7-4-4-2-2-2-2--|
[ Tab from: http://www.guitartabs.cc/tabs/n/new_found_glory/dressed_to_kill_btab.html ]
Verse part 3
G|----------------------------------------------------------------------------|
D|----------------------------------------------------------------------------|
A|----------------------------------------------------------------------------|
E|-4-2--000000--4-2--000000--4-2--000000--4-2---------------------------------|


Chorus
G|----------------------------------------------------------------------------|
D|----------------------------------------------------------------------------|
A|----------------------------------------------------------------------------|
E|--777777--666666--444444--0--2---777777--666666--444444--0--2---------------|

G|----------------------------------------------------------------------------|
D|----------------------------------------------------------------------------|
A|----------------------------------------------------------------------------|
E|--777777--666666--444444--0--2---777777--666666--444444--0--2---------------|

Bride(now right as the chorus ends u play this. Play the 0 part with how it sounds also)
G|----------------------------------------------------------------------------|
D|----------------------------------------------------------------------------|
A|----------------------------------------------------------------------------|
E|-4-----2-----4--6--7------00000000000--------0000000000------00000000000----|

G|----------------------------------------------------------------------------|
D|----------------------------------------------------------------------------|
A|----------------------------------------------------------------------------|
E|--0000000000000000000000----------------------------------------------------|

Chorus
G|----------------------------------------------------------------------------|
D|----------------------------------------------------------------------------|
A|----------------------------------------------------------------------------|
E|--777777--666666--444444--0--2---777777--666666--444444--0--2---------------|

G|----------------------------------------------------------------------------|
D|----------------------------------------------------------------------------|
A|----------------------------------------------------------------------------|
E|--777777--666666--444444--0--2---777777--666666--444444--0--2---------------|

Outro
G|----------------------------------------------------------------------------|
D|----------------------------------------------------------------------------|
A|----------------------------------------------------------------------------|
E|-4-----2-----4--6--7--------------------------------------------------------|

BY:GYM3CHAR
Comments