New Found Glory - Doubt Full Chords & Tabs

 

Doubt Full Chords & Tabs

New Found Glory Chords & Tabs

Version: 1 Type: Bass Tab 0 ratings
1 star 2 stars 3 stars 4 stars 5 stars
comments

Doubt Full Bass Tab

   
NEW FOUND GLORY
DOUBT FULL
BASSIST IAN GRUSHKA
Tabber Tim Bentham

Intro, no bass at start but then comes in

G-----------------------------------]
D-----------------------------------] X2 
A-4-7-4-7---------4-7-4h7p4---------]     
E---------4-7-4-7-----------4-7-4-7-]

Verse- no bass for first bit.

G---------|
D---------| X1 only on the first verse
A---------|
E-4-7-4-7-|

G-------------------------------|
D-------------------------------| X4 then back to intro
A-44-44-----------44-44---------|
E-----------55-55---------55-55-|

Then verse again

Chorus
[ Tab from: http://www.guitartabs.cc/tabs/n/new_found_glory/doubt_full_btab.html ]
G-------------------------------------------]
D-------------------------------------------] X4 not 100% on how many times u
A-4-4-4-4-4-------------7-7-7-7-7-7-7-7-7-7-] strum each note but has a cool
E--------------5-5-5-5-5--------------------] pattern to it.
 
Back to intro
Then verse
Then chorus
Bridge-no bass at start
Then 

Bridge

G-------------------------------------]   
D-------------------------------------]
A-4-4-4-4-----------4-4-4-4-----------]   on last turn u miss out the E-2-2-2-2-
E-----------5-5-5-5-----------2-2-2-2-]    and play A-4-4-4-4-4-4-4-4

Then you play the chorus and then one spout of the intro and that's it.
Comments