New Found Glory - Constant Static Chords & Tabs

 

Constant Static Chords & Tabs

New Found Glory Chords & Tabs

Version: 2 Type: Tab 0 ratings
1 star 2 stars 3 stars 4 stars 5 stars
comments

Constant Static Tab

   
-------------------------------------------------------------------------------
			     Constant Static - New Found Glory
-------------------------------------------------------------------------------
Tabbed by: Tom Kyle
Email:Tombotownusa@hotmail.com
[ Tab from: http://www.guitartabs.cc/tabs/n/new_found_glory/constant_static_tab_ver_2.html ]
Tuning: Standard
Intro - Guitar 1
e|--------------------------------------------------------------------------------------|
B|--------------------------------------------------------------------------------------|
G|--------6677-----6677--------6677-----6677--------6677-----6677--------6677-----6677--|
D|--77--7-7777--7777777--77--7-7777--7777777--44--4-7777--4447777--------7777-----7777--|
A|--55--5-------555------55--5-------555------22--2-------222------55--5-------555------|
E|-----------------------------------------------------------------33--3-------333------|
Intro - guitar 2
e|------------------------------------------------------------------------|
B|------------------------------------------------------------------------|
G|--x/--777777777777777777777777777777774444444444444444------------------|
D|--x/--7777777777777777777777777777777744444444444444445555555555555555--|
A|------5555555555555555555555555555555522222222222222225555555555555555--|
E|------------------------------------------------------3333333333333333--|
Verse - palm muted
e|---------------------------------------------------------------------------|
B|---------------------------------------------------------------------------|
G|--------------------------------------------x2-----------------------------|
D|--77---777---77---777---44---444-----------------7-------------------------|
A|--55---555---55---555---22---222---55---555------7-------------------------|
E|-----------------------------------33---333------5-------------------------|
Chorus
e|---------------------------------------------------------------------------|
B|---------------------------------------------------------------------------|
G|--777777777777777766666666666666664444444444444444-------------------------|
D|--7777777777777777777777777777777744444444444444445----5----5--------------|
A|--5555555555555555555555555555555522222222222222225-55-5-55-5-55-----------|
E|--------------------------------------------------3-33-3-33-3-33-----------|
Breakdown					      ..   ..   ..
e|---------------------------------------------------------------------------|
B|---------------------------------------------------------------------------|
G|------77----7777--444477----7777--x4----777------7777-777777---------------|
D|--555577-7--7777--444477-7--7777-----5557777777777777-7777777777777777-----|
A|--555555-7--5555--222255-7--5555-----5555557777775555-5555557777777777-----|
E|--3333---5---------------5-----------333---555555-----------5555555555-----|
Basically it the breakdown probly isnt rite but i finnd if i play that it sounds
pretty rite but if ya can figure it out
exactly let me no...

| /  slide up
| \  slide down
| h  hammer-on
| p  pull-off
| ~  vibrato
| +  harmonic
| x  Mute note
===============================================================================
Comments