New Found Glory - Constant Static Chords & Tabs

 

Constant Static Chords & Tabs

New Found Glory Chords & Tabs

Version: 1 Type: Bass Tab 0 ratings
1 star 2 stars 3 stars 4 stars 5 stars
comments

Constant Static Bass Tab

Band:New Found Glory
Song:Constant Static
Album:Catalyst

Tabbed by Kyle Gayne

Intro(bass enters at 0:09)
G:------------------------------------------------------------------|
D:------------------------------------------------------------------|
A:-555555555555555555555555555555552222222222222222-----------------|x1
E:-------------------------------------------------3333333333333333-|

Verse
G:------------------------------------------------------------------|
D:------------------------------------------------------------------|
A:-55-------555----55-------555----22-------222---------------------|x1
E:-------------------------------------------------33-------333-----|

G:------------------------------------------------------------------|
D:------------------------------------------------------------------|
A:-55-------555----55-------555----22-------222---------------------|x1
E:-------------------------------------------------33-------333-333-|

Pre Chorus 1
G:------------------|
D:------------------|
A:------------------|x1
E:-5~~~~~~~---------|

Chorus
G:-------------------------00---------------------------------------|
D:-----2244---44422----2244--442244---------------------------------|
A:-5555----555-----5555------------2222222222222222-----------------|x1
E:-------------------------------------------------3~~~---3~~~~-----|
[ Tab from: http://www.guitartabs.cc/tabs/n/new_found_glory/constant_static_btab.html ]
G:-------------------------00-------------------------------------------------------|
D:-----2244---44422----2244--442244------------0022---------------------------------|
A:-5555----555-----5555------------222222222244-------------------------------------|x1
E:-------------------------------------------------3~~~---3~~~~----3~~~---3~~~~-----|

Repeat:
Verse

Pre Chorus 2
G:----------------------------------|
D:----------------------------------|
A:----------------------------------|x1
E:-5~~~~~~~--------5~~~~~~~---------|

Repeat:
Chorus

Rest until 2:10

Bridge
G:----------------------------------|
D:----------------------------------|
A:-----------------55555555---------|x4
E:-2222222333333333--------55555555-|

Chorus
G:------------------------------------------------------------------|
D:------------------------------------------------------------------|
A:------------------------------------------------------------------|x1
E:-------------------------------------------------3~~~---3~~~~-----|

G:-------------------------00---------------------------------------|
D:-----2244---44422----2244--442244---------------------------------|
A:-5555----555-----5555------------2222222222222222-----------------|x1
E:-------------------------------------------------3~~~---3~~~~-----|

G:-------------------------00---------------------------------------|
D:-----2244---44422----2244--442244------------0022-----------------|
A:-5555----555-----5555------------222222222244---------------------|x1
E:-------------------------------------------------3~~~---3~~~~-----|

G:------------------------------------------------------------------|
D:------------------------------------------------------------------|
A:------------------------------------------------------------------|x1
E:-3~~~---3~~~~----3~~~---3~~~~~~~~~~~~~~~~~~~~---------------------|
Comments