New Found Glory - Cat Peed On My Sleepin Bag Chords & Tabs

 

Cat Peed On My Sleepin Bag Chords & Tabs

New Found Glory Chords & Tabs

Version: 1 Type: Tab 0 ratings
1 star 2 stars 3 stars 4 stars 5 stars
comments

Cat Peed On My Sleepin Bag Tab

-------------------------------------------------------------------------------
	        NEW FOUND GLORY - Cat peed on my sleepin' bag
-------------------------------------------------------------------------------
Tabbed by: JOHN	

Tuning: Standard

This tab is from NFG's new dvd, there's a part in the bonus nfg feature video where 
Jordan starts to sing this song, its really easy and funny

All tha way thru the song its basically just an G9 and he changes the chord once
and then goes back to a G9


ENJOY!!!!!!!!!!!! :-)	


LEGEND:
...- that means to keep on strummin until the next line (u'll know what to do if
     u saw the dvd),
	
~ ~- let it ring 'till next tab


e|-3---3----3--3----3-----3---------3...------------------|
B|-3---3----3--3----3-----3---------3...------------------|
G|-0---0----0--0----0-----0---------0...------------------|
D|-0---0----0--0----0-----0---------0...------------------|
A|-2---2----2--2----2-----2---------2...------------------|
E|-3---3----3--3----3-----3---------3...------------------|
  Cat peed on my sleepin bag, 

e|-3--3-3---3-3---3-------3...----------------------------|
B|-3--3-3---3-3---3-------3...----------------------------|
G|-0--0-0---0-0---0-------0...----------------------------|
D|-0--0-0---0-0---0-------0...----------------------------|
A|-2--2-2---2-2---2-------2...----------------------------|
E|-3--3-3---3-3---3-------3...----------------------------|
  It smells like pi@#,

e|-3---3---3----3--3----3-----3----3...--------------|
B|-3---3---3----3--3----3-----3----3...--------------|
G|-0---0---0----0--0----0-----0----0...--------------|
D|-0---0---0----0--0----0-----0----0...--------------|
A|-2---2---2----2--2----2-----2----2...--------------|
E|-3---3---3----3--3----3-----3----3...--------------|
  The cat peed on my sleepin bag,

e|--3---3----3----3---3----3-3---3----------------------|
B|--3---3----3----3---3----3-3---3----------------------|
G|--0---0----0----0---0----0-0---0----------------------|
D|--0---2----2----2---2----2-2---2----------------------|
A|--2---3----3----3---3----3-3---3----------------------|
E|--3---0----0----0---0----0-0---0----------------------|
    Hey you guys can stay at my house

e|-3~ ~-------3~ ------3~ ~---------------------|
B|-3~ ~-------3~ ------3~ ~---------------------|
G|-0~ ~-------0~ ------0~ ~---------------------|
D|-2~ ~-------2~ ------2~ ~---------------------|
A|-3~ ~-------3~ ------3~ ~---------------------|
E|-0~ ~-------0~ ------0~ ~---------------------|
  You guys can stay at my house

e|-3----3---3-----3...-------------------|
B|-3----3---3-----3...-------------------|
G|-0----0---0-----0...-------------------|
D|-0----0---0-----0...-------------------|
A|-2----2---2-----2...-------------------|
E|-3----3---3-----3...-------------------|
  It'll be fun

e|-3----3---3-----3...----------------|
B|-3----3---3-----3...----------------|
G|-0----0---0-----0...----------------|
D|-0----0---0-----0...----------------|
A|-2----2---2-----2...----------------|
E|-3----3---3-----3...----------------|
  It'll be fun 

e|-3---3~ ~--------------------------|
B|-3---3~ ~--------------------------|
G|-0---0~ ~--------------------------|
D|-0---0~ ~--------------------------|
A|-2---2~ ~--------------------------|
E|-3---3~ ~--------------------------|
  But then when you get there

e|-3~ ~-------------------------------|
B|-3~ ~-------------------------------|
G|-0~ ~-------------------------------|
D|-0~ ~-------------------------------|
A|-2~ ~-------------------------------|
E|-3~ ~-------------------------------|
  Someone's gonna break

e|-3---3------3--------3...------------------------|
B|-3---3------3--------3...------------------------|
G|-0---0------0--------0...------------------------|
D|-0---0------0--------0...------------------------|
A|-2---2------2--------2...------------------------|
E|-3---3------3--------3...------------------------|
  Into your trailer
[ Tab from: http://www.guitartabs.cc/tabs/n/new_found_glory/cat_peed_on_my_sleepin_bag_tab.html ]
e|-3---3------3--------3...------------------------|
B|-3---3------3--------3...------------------------|
G|-0---0------0--------0...------------------------|
D|-0---0------0--------0...------------------------|
A|-2---2------2--------2...------------------------|
E|-3---3------3--------3...------------------------|
  Into your trailer

e|-3---3---3-----3-----3----3--3----3---3------------------|
B|-3---3---3-----3-----3----3--3----3---3------------------|
G|-0---0---0-----0-----0----0--0----0---0------------------|
D|-0---0---0-----0-----0----0--0----0---0------------------|
A|-2---2---2-----2-----2----2--2----2---2------------------|
E|-3---3---3-----3-----3----3--3----3---3------------------|
  And then your gonna wake up and find out

e|-3----3------3----3----3---3----3-----3------------------|
B|-3----3------3----3----3---3----3-----3------------------|
G|-0----0------0----0----0---0----0-----0------------------|
D|-0----0------0----0----0---0----0-----0------------------|
A|-2----2------2----2----2---2----2-----2------------------|
E|-3----3------3----3----3---3----3-----3------------------|
  That there's cat pi$# all over your sweater

e|-3---3-----3-------3-----3...--------------------------|
B|-3---3-----3-------3-----3...--------------------------|
G|-0---0-----0-------0-----0...--------------------------|
D|-0---0-----0-------0-----0...--------------------------|
A|-2---2-----2-------2-----2...--------------------------|
E|-3---3-----3-------3-----3...--------------------------|
  and your sleepin' bag

e|-3---3---3-----3----3-------------------------------|
B|-3---3---3-----3----3-------------------------------|
G|-0---0---0-----0----0-------------------------------|
D|-0---0---0-----0----0-------------------------------|
A|-2---2---2-----2----2-------------------------------|
E|-3---3---3-----3----3-------------------------------|
  and you wanna kill yourself

e|-3---3---3---3-----3--3---3----3--------------------------------|
B|-3---3---3---3-----3--3---3----3--------------------------------|
G|-0---0---0---0-----0--0---0----0--------------------------------|
D|-0---0---0---0-----0--0---0----0--------------------------------|
A|-2---2---2---2-----2--2---2----2--------------------------------|
E|-3---3---3---3-----3--3---3----3--------------------------------|
  and its the worst day of your life

e|-3---3---3---3-----3--3---3----3---3-3------3---3----3---------------|
B|-3---3---3---3-----3--3---3----3---3-3------3---3----3---------------|
G|-0---0---0---0-----0--0---0----0---0-0------0---0----0---------------|
D|-0---0---0---0-----0--0---0----0---0-0------0---0----0---------------|
A|-2---2---2---2-----2--2---2----2---2-2------2---2----2---------------|
E|-3---3---3---3-----3--3---3----3---3-3------3---3----3---------------|
  its the worst day of your life,            cuz your hungry

e|-3---3---3---3-----3--3---3----3---3-3------3---3----3---------------|
B|-3---3---3---3-----3--3---3----3---3-3------3---3----3---------------|
G|-0---0---0---0-----0--0---0----0---0-0------0---0----0---------------|
D|-0---0---0---0-----0--0---0----0---0-0------0---0----0---------------|
A|-2---2---2---2-----2--2---2----2---2-2------2---2----2---------------|
E|-3---3---3---3-----3--3---3----3---3-3------3---3----3---------------|
  and you gotta get the trailer fixed

e|-3---3---3---3-----3--3---3----3---3-3------3---3----3-----3...---------|
B|-3---3---3---3-----3--3---3----3---3-3------3---3----3-----3...---------|
G|-0---0---0---0-----0--0---0----0---0-0------0---0----0-----0...---------|
D|-0---0---0---0-----0--0---0----0---0-0------0---0----0-----0...---------|
A|-2---2---2---2-----2--2---2----2---2-2------2---2----2-----2...---------|
E|-3---3---3---3-----3--3---3----3---3-3------3---3----3-----3...---------|
  in a *&$# #)$)%*# $))#*%$# place, you know what i'm sayin


Hey sorry i had to block out cat pi$#, just that i didn't know if they'd accept
that on tha site, anyways look out for the change in chords (its when he says "you guys 

can stay at my house, you guys can stay at my house" then it changes back to the G9)

THERE yA GO thats it, the way he strums it and stuff is way easy just see that part of 

the dvd and u'll know how to do it right away, uh i blocked out the last few words cuz 

he uses some
colorful wording that probably wouldn't be allowed on this site

Thanx again ultimate-guitar.com! ur awesome! JOHN (CHS RULZ!)

Hey and if i'm wrong about it being a G9 dont get all mad cuz the tabs are still given 

to you so u still know how to play the song
Comments