New Found Glory - Broken Sound Chords & Tabs

 

Broken Sound Chords & Tabs

New Found Glory Chords & Tabs

Version: 9 Type: Tab 0 ratings
1 star 2 stars 3 stars 4 stars 5 stars
comments

Broken Sound Tab

Tabbed by:FenderKid41
E-Mail:guitarmaster41@yahoo.com

Artist:New Found Glory
Album:Nothing Gold Can Stay
Song:Broken Sound

Tuning:EBGDAE

/ = SLIDE UP
\ = SLIDE DOWN
h = HAMMER ON
p = PULL OFF
. = PALM MUTE

Q = 164

--------------------
Intro:
--------------------

Guitar 1
E|---3-----|---3-----|---------|-------|---3-----|---3-----|---------|---|
B|-----3---|-----3---|---------|-------|-----3---|-----3---|---------|---|
G|---------|---------|-----0---|-------|---------|---------|-----0-0-|---|
D|-------2-|-0-----0-|---2---2-|-----0-|-------2-|-0-----0-|---2-----|-0-|
A|-2-------|---------|-3-------|---2---|-2-------|---------|-3-------|-2-|
E|---------|---------|---------|-3-----|---------|---------|---------|-3-|

Guitar 2
E|---------|---------|---------|-------|---------|---------|---------|---|
B|---------|---------|---------|-------|---------|---------|---------|---|
G|---------|---------|---------|-------|---------|---------|---------|---|
D|---------|---------|---------|-------|---------|---------|---------|---|
A|---------|---------|---------|-------|---------|---------|---------|---|
E|---------|---------|---------|-------|---------|---------|---------|---|


--------------------
Verse:
--------------------

Guitar 1
E|---3-----|---3-----|---------|-------|
B|-----3---|-----3---|---------|-------|
G|---------|---------|-----0---|-------|
D|-------2-|-0-----0-|---2---2-|-----0-|
A|-2-------|---------|-3-------|---2---|
E|---------|---------|---------|-3-----|

Guitar 2
E|---------|---------|---------|-------|
B|---------|---------|---------|-------|
G|---------|---------|---------|-------|
D|-2-------|-0-------|---------|-------|
A|(2)------|---------|-3-------|-(3)---|
E|---------|---------|---------|-------|

Guitar 1
E|---3-----|---3-----|---------|-------|
B|-----3---|-----3---|---------|-------|
G|---------|---------|-----0---|-------|
D|-------2-|-0-----0-|---2---2-|-----0-|
A|-2-------|---------|-3-------|---2---|
E|---------|---------|---------|-3-----|

Guitar 2
E|---------|---------|---------|-------|
B|---------|---------|---------|-------|
G|---------|---------|---------|-------|
D|-2-------|-0-------|---------|-------|
A|---------|---------|-3-------|-(3)---|
E|---------|---------|---------|-------|

Guitar 1
E|---3-----|---3-----|---------|-------|
B|-----3---|-----3---|---------|-------|
G|---------|---------|-----0---|-------|
D|-------2-|-0-----0-|---2---2-|-----0-|
A|-2-------|---------|-3-------|---2---|
E|---------|---------|---------|-3-----|

Guitar 2
E|---------|-14------|-15------|-(15)--|
B|---------|---------|---------|-------|
G|---------|---------|---------|-------|
D|-2-------|--0------|--3------|--(3)--|
A|---------|---------|---------|-------|
E|---------|---------|---------|-------|

Guitar 1
E|---3-----|---3-----|---------|-------|
B|-----3---|-----3---|---------|-------|
G|---------|---------|-----0-0-|-------|
D|-------2-|-0-----0-|---2-----|-----0-|
A|-2-------|---------|-3-------|---2---|
E|---------|---------|---------|-3-----|

Guitar 2
E|-(19)----|-(17)----|-(15)----|-(15)--------|
B|-(17)----|---------|---------|-------------|
G|---------|---------|---------|------(0)----|
D|---2-----|---0-----|---------|---------(0)-|
A|---------|---------|---3-----|--(3)--------|
E|---------|---------|---------|-------------|


--------------------
Chorus:
--------------------

Guitar 1
E|---------|-------|---------|-----------|
B|---------|-------|---------|-----------|
G|-----0-0-|-----0-|---------|-----------|
D|---0-----|---0---|-----0-0-|---4-5-4---|
A|-2-------|-3-----|---2-----|---------5-|
E|---------|-------|-3-------|-3---------|

Guitar 2
E|---------|-------|---------|-----------|
B|---------|-------|---------|-----------|
G|---------|-------|---------|-----------|
D|---------|-------|---------|-----------|
A|---------|-------|---------|-----------|
E|---------|-------|---------|-----------|

Guitar 1
E|---------|-------|---------|-----------|
B|---------|-------|---------|-----------|
G|-----0-0-|-----0-|---------|-----------|
D|---0-----|---0---|-----0-0-|---4-5-4---|
A|-2-------|-3-----|---2-----|---------5-|
E|---------|-------|-3-------|-3---------|

Guitar 2
E|---------|-------|---------|-----------|
B|---------|-------|---------|-----------|
G|---------|-------|---------|-----------|
D|---------|-------|---------|-----------|
A|---------|-------|---------|-----------|
E|---------|-------|---------|-----------|

Guitar 1
E|---------|-------|---------|-----------|
B|---------|-------|---------|-----------|
G|-----0-0-|-----0-|---------|-----------|
D|---0-----|---0---|-----0-0-|---4-5-4---|
A|-2-------|-3-----|---2-----|---------5-|
E|---------|-------|-3-------|-3---------|

Guitar 2
E|---------|-------|---------|-----------|
B|---------|-------|---------|-----------|
G|---------|-------|---------|-----------|
D|---------|-------|---------|-----------|
A|---------|-------|---------|-----------|
E|---------|-------|---------|-----------|

Guitar 1
E|---------|-------|---|
B|---------|-------|---|
G|-----0-0-|-----0-|---|
D|---0-----|---0---|-0-|
A|-2-------|-3-----|-2-|
E|---------|-------|-3-|

Guitar 2
E|---------|-------|---|
B|---------|-------|---|
G|---------|-------|---|
D|---------|-------|---|
A|---------|-------|---|
E|---------|-------|---|


--------------------
Verse
--------------------


--------------------
Chorus
--------------------


--------------------
Interlude:
--------------------

Guitar 1
E|---------|-------|--------|----------|
B|---------|-------|--------|----------|
G|-----0-0-|-----0-|--------|-12----12-|
D|---0-----|---0---|--------|----------|
A|-2-------|-3-----|-2------|----10----|
E|---------|-------|-3------|----------|

E|---------|-------|--------|----------|
B|---------|-------|--------|----------|
G|---------|-------|--------|----------|
D|---------|-------|-5------|-(5)------|
A|---------|-------|-5------|-(5)------|
E|---------|-------|-3------|-(3)------|


--------------------
Bridge:
--------------------
[ Tab from: http://www.guitartabs.cc/tabs/n/new_found_glory/broken_sound_tab_ver_9.html ]
Guitars 1 & 2
E|------------|------------|------------|------------|
B|------------|------------|------------|------------|
G|-9--9-9-9-9-|-7--7-7-7---|------------|-5--5-5-5---|
D|-9--9-9-9-9-|-7--7-7-7-0-|-5--5-5-5-5-|-5--5-5-5-0-|
A|-7--7-7-7-7-|-5--5-5-5-0-|-5--5-5-5-5-|-3--3-3-3-0-|
E|------------|------------|-3--3-3-3-3-|------------|

Guitars 1 & 2
E|------------|------------|------------|------------|
B|------------|------------|------------|------------|
G|-9--9-9-9-9-|-7--7-7-7---|------------|-5--5-5-5---|
D|-9--9-9-9-9-|-7--7-7-7-0-|-5--5-5-5-5-|-5--5-5-5-0-|
A|-7--7-7-7-7-|-5--5-5-5-0-|-5--5-5-5-5-|-3--3-3-3-0-|
E|------------|------------|-3--3-3-3-3-|------------|

Guitars 1 & 2
E|------------|------------|------------|------------|
B|------------|------------|------------|------------|
G|-9--9-9-9-9-|-7--7-7-7---|------------|-5----------|
D|-9--9-9-9-9-|-7--7-7-7-0-|-5--5-5-5-5-|-5--5-5-5-5-|
A|-7--7-7-7-7-|-5--5-5-5-0-|-5--5-5-5-5-|-3--3-3-3-3-|
E|------------|------------|-3--3-3-3-3-|------------|
                                             . . . .
Guitar 1
E|------------|---------|------------|------------|
B|------------|---------|------------|------------|
G|-4----------|---------|------------|------------|
D|-4--4-4-4-4-|-5--5--5-|-5----------|-5----------|
A|-2--2-2-2-2-|-3--3--3-|-5--5-5-5-5-|-5--5-5-5-5-|
E|------------|---------|-3--3-3-3-3-|-3--3-3-3-3-|
      . . . .                . . . .      . . . .

Guitar 2
E|------------|---------|-------------|-------------|
B|------------|---------|-------------|-------------|
G|-4----------|---------|-------------|-------------|
D|-4--4-4-4-4-|-5--5--5-|-------------|-------------|
A|-2--2-2-2-2-|-3--3--3-|-0-2-3-5-3-2-|-0-2-3-5-3-2-|
E|------------|---------|-------------|-------------|
      . . . .             . . . . . .   . . . . . .

Guitar 1
E|------------|---------|------------|------------|
B|------------|---------|------------|------------|
G|-4----------|---------|------------|------------|
D|-4--4-4-4-4-|-5--5--5-|-5----------|-5----------|
A|-2--2-2-2-2-|-3--3--3-|-5--5-5-5-5-|-5--5-5-5-5-|
E|------------|---------|-3--3-3-3-3-|-3--3-3-3-3-|
      . . . .                . . . .      . . . .

Guitar 2
E|------------|---------|-------------|-------------|
B|------------|---------|-------------|-------------|
G|-4----------|---------|-------------|-------------|
D|-4--4-4-4-4-|-5--5--5-|-------------|-------------|
A|-2--2-2-2-2-|-3--3--3-|-0-2-3-5-3-2-|-0-2-3-5-3-2-|
E|------------|---------|-------------|-------------|
      . . . .             . . . . . .   . . . . . .

Guitar 1
E|------------|---------|------------|------------|
B|------------|---------|------------|------------|
G|-4----------|---------|------------|------------|
D|-4--4-4-4-4-|-5--5--5-|-5----------|-5----------|
A|-2--2-2-2-2-|-3--3--3-|-5--5-5-5-5-|-5--5-5-5-5-|
E|------------|---------|-3--3-3-3-3-|-3--3-3-3-3-|
      . . . .                . . . .      . . . .

Guitar 2
E|------------|---------|-------------|-------------|
B|------------|---------|-------------|-------------|
G|-4----------|---------|-------------|-------------|
D|-4--4-4-4-4-|-5--5--5-|-------------|-------------|
A|-2--2-2-2-2-|-3--3--3-|-0-2-3-5-3-2-|-0-2-3-5-3-2-|
E|------------|---------|-------------|-------------|
      . . . .             . . . . . .   . . . . . .

Guitars 1 & 2
E|------------|---------|------------|------------|
B|------------|---------|------------|------------|
G|-4----------|---------|------------|------------|
D|-4--4-4-4-4-|-5--5--5-|-5--5-5-5-5-|-5--5-5-5-5-|
A|-2--2-2-2-2-|-3--3--3-|-5--5-5-5-5-|-5--5-5-5-5-|
E|------------|---------|-3--3-3-3-3-|-3--3-3-3-3-|
      . . . .                


--------------------
Outro:
--------------------

Guitar 1
E|------------|------------|------------|------------|
B|------------|------------|------------|------------|
G|-9--9-9-9-9-|-7--7-7-7---|------------|-5--5-5-5---|
D|-9--9-9-9-9-|-7--7-7-7-0-|-5--5-5-5-5-|-5--5-5-5-0-|
A|-7--7-7-7-7-|-5--5-5-5-0-|-5--5-5-5-5-|-3--3-3-3-0-|
E|------------|------------|-3--3-3-3-3-|------------|

Guitar 2
E|------------|------------|------------|------------|
B|------------|------------|------------|------------|
G|------------|------------|------------|------------|
D|------------|------------|------------|------------|
A|-7--9--10---|-5--9--10---|-7----5-----|-3----------|
E|------------|------------|------------|------------|

Guitar 1
E|------------|------------|------------|------------|
B|------------|------------|------------|------------|
G|-9--9-9-9-9-|-7--7-7-7---|------------|-5--5-5-5---|
D|-9--9-9-9-9-|-7--7-7-7-0-|-5--5-5-5-5-|-5--5-5-5-0-|
A|-7--7-7-7-7-|-5--5-5-5-0-|-5--5-5-5-5-|-3--3-3-3-0-|
E|------------|------------|-3--3-3-3-3-|------------|

Guitar 2
E|------------|------------|------------|------------|
B|------------|------------|------------|------------|
G|------------|------------|------------|------------|
D|------------|------------|------------|------------|
A|-7--9--10---|-5--9--10---|-/12-10-----|-10---------|
E|------------|------------|------------|------------|

Guitar 1
E|------------|------------|------------|------------|
B|------------|------------|------------|------------|
G|-9--9-9-9-9-|-7--7-7-7---|------------|-5--5-5-5---|
D|-9--9-9-9-9-|-7--7-7-7-0-|-5--5-5-5-5-|-5--5-5-5-0-|
A|-7--7-7-7-7-|-5--5-5-5-0-|-5--5-5-5-5-|-3--3-3-3-0-|
E|------------|------------|-3--3-3-3-3-|------------|

Guitar 2
E|------------|------------|------------|------------|
B|------------|------------|------------|------------|
G|------------|------------|------------|------------|
D|------------|------------|------------|------------|
A|-7--9--10---|-5--9--10---|-/12-10-----|-5----------|
E|------------|------------|------------|------------|

Guitar 1
E|------------|------------|---|
B|------------|------------|---|
G|-9--9-9-9-9-|-7--7-7-7---|---|
D|-9--9-9-9-9-|-7--7-7-7-0-|-5-|
A|-7--7-7-7-7-|-5--5-5-5-0-|-5-|
E|------------|------------|-3-|

Guitar 2
E|------------|------------|----|
B|------------|------------|----|
G|------------|------------|-12-|
D|------------|------------|--x-|
A|-7--9--10---|-5--9--10---|-10-|
E|------------|------------|----|
Comments