New Found Glory - Broken Sound Chords & Tabs

 

Broken Sound Chords & Tabs

New Found Glory Chords & Tabs

Version: 8 Type: Tab 0 ratings
1 star 2 stars 3 stars 4 stars 5 stars
comments

Broken Sound Tab

new found glory-broken sound

intro
e|-------3----------3--------------3------------------------------------------|
B|----------3---------3--------------3----------------------------------------|
G|----------------------------------------------------------------------------|
D|---2------------0-------------0---------------------------------------------|
A|----------------------------3--------------2-----3--------------------------|
E|----------------------------------------3-----------------------------------|

					
e|------3-----------3----------3--------3-------------------------------------|
B|--------3-----------3-----------3-----3-------------------------------------|
G|--------------------------------------0-------------------------------------|
D|--------------------------0-----------0-------------------------------------|
A|--2-----------0----------3------------2-------------------------------------|
E|--------------------------------------3-------------------------------------|

"i wake up......"
e|-------3----------3--------------3------------------------------------------|
B|----------3---------3--------------3----------------------------------------|
G|-----------------------------------------------------------( 3-4x's )---------|
D|---2------------0-------------0---------------------------------------------|
A|----------------------------3--------------2-----3--------------------------|
E|----------------------------------------3-----------------------------------|

e|----------------------------------------------------------------------------|
B|--------------------------1-------------------------------------------------|
G|----------0-------------------0---------------------------------------------|
D|------2---------------------------2--------------0-----0--------------------|
A|---2------------------3----------------------2------------2-------2-3-2-----|
E|-------------------------------------------3--------3-----------3-----------|
[ Tab from: http://www.guitartabs.cc/tabs/n/new_found_glory/broken_sound_tab_ver_8.html ]
Intro Again
e|-------3----------3--------------3------------------------------------------|
B|----------3---------3--------------3----------------------------------------|
G|-----------------------------------------------------------( 4x's )---------|
D|---2------------0-------------0---------------------------------------------|
A|----------------------------3--------------2-----3--------------------------|
E|----------------------------------------3-----------------------------------|

"and i can be the one......"
distorted
e|---------------------------------------------------------------------------|
B|---------------------------------------------------------------------------|
G|---9----7-----------5------------------------------------------------------|
D|---9----7-----5-----5------------------------------------------------------|
A|---7----5-----5-----3------------------------------------------------------|
E|--------------3------------------------------------------------------------|

"and my heart aches...."2xs?
e|---------------------------------------------------------------------------|
B|---------------------------------------------------------------------------|
G|----5------7---------------------------------------------------------------|
D|----5------7---------------------------------------------------------------|
A|----3------5------------3--5----------3---5--------------------------------|
E|-----------------3---6---------3---6---------------------------------------|


e|---------------------------------------------------------------------------|
B|---------------------------------------------------------------------------|
G|---------------------------------------------------------------------------|
D|------6----9------------4----7--------2---5--------------------------------|
A|---7----------------5--------------3-----------------------3---------------|
E|-------------------------------------------------3----6--------------------|


i think this is pretty right so try it out its a nice easy song to play and  A LOT to play
Comments