New Found Glory - Broken Sound Chords & Tabs

 

Broken Sound Chords & Tabs

New Found Glory Chords & Tabs

Version: 7 Type: Tab 0 ratings
1 star 2 stars 3 stars 4 stars 5 stars
comments

Broken Sound Tab

I don't think it's completely right, but I looked at other tabs and didn't
really like the way it sounded so I altered it just a bit.  So it's probably not
correct, but I think it sounds better.

Tabbed By : Tam
Email : trennyl_voc@hotmail.com
Artist : New Found Glory
Song : Broken Sound
Album : Nothing Gold Can Stay
Tuning : Standard

Acoustic on all, excpet distortion on power chords

INTRO AND VERSE
E]----3---------3--------------------------
B]------3---------3------------------------
G]---------------------------0-------------
D]-2-------2-0------0---0------0-----0-----
A]--------------------2------------2-------
E]-------------------------------3---------

E]----3---------3--------------------------
B]------3---------3------------------------
G]---------------------------0-------------
D]-2-------2-0------0---0------0-----------
A]--------------------2--------------------
E]-------------------------------3---------

[ Tab from: http://www.guitartabs.cc/tabs/n/new_found_glory/broken_sound_tab_ver_7.html ]
CHORUS
E]-----------------------------------------
B]-----------------------------------------
G]-----0-------0---------------------------
D]---0---0---0--0----0------0----5p0-------
A]-2-------3--------2------2----------2----
E]----------------3------3-----------------

VERSE REPEATS

CHORUS REPEATS

E]-----------------------------------------
B]-----------------------------------------
G]-----0-------0---555---------------------
D]---0---0---0--0--555---------------------
A]-2-------3-------333---------------------
E]-----------------------------------------


E]-----------------------------------------
B]-----------------------------------------
G]-999-777-----555-------------------------
D]-999-777-555-555-------------------------
A]-777-555-555-333-------------------------
E]---------333-----------------------------
 
     [pm]
E]-----------------------------------------
B]-----------------------------------------
G]-4-[444]-5-[555]-------------------------
D]-4-[444]-5-[555]-5-[555]-5-[555]---------
A]-2-[222]-3-[333]-5-[555]-5-[555]---------
E]-----------------3-[333]-3-[333]---------

*rings
E]-----------------------------------------
B]-----------------------------------------
G]-999-777---------------------------------
D]-999-777-555*----------------------------
A]-777-555-555*----------------------------
E]---------333*----------------------------
Comments