New Found Glory - Broken Sound Chords & Tabs

 

Broken Sound Chords & Tabs

New Found Glory Chords & Tabs

Version: 4 Type: Tab 0 ratings
1 star 2 stars 3 stars 4 stars 5 stars
comments

Broken Sound Tab

This is around 98% correct to me.

E]----3---------3--------------------------
B]------3---------3------------------------
G]---------------------------0-------------
D]-2-------2-0------o---------0----0-------
A]--------------------2-2h3----2--2--------
E]------------------------------3----------

[ Tab from: http://www.guitartabs.cc/tabs/n/new_found_glory/broken_sound_tab_ver_4.html ]
E]----3---------3--------------------------
B]------3---------3------------------------
G]---------------------------0-------------
D]-2-------2-0------o---------0------------
A]--------------------2-2h3----2-----------
E]------------------------------3----------

Listen to the song to get the timing right. If you do its sounds almost perfect.
Comments