New Found Glory - Broken Sound Chords & Tabs

 

Broken Sound Chords & Tabs

New Found Glory Chords & Tabs

Version: 2 Type: Tab 0 ratings
1 star 2 stars 3 stars 4 stars 5 stars
comments

Broken Sound Tab

Broken Sound – New Found Glory

I don't really like this band but this is a good song in acoustic, this tab should be 100% correct

Intro x2
E----3-------3-------------------3-------3-----------3-----------------
B------3-------3-------------------3-------3---------3-----------------
G----------------------0---------------------------0-0-----------------
D--2-----2-0-----0---2-------0-2-----2-0-----0---2---0-----------------
A------------------3-------2-------------------3-----2-----------------
E------------------------3---------------------------3-----------------

Verse (Part one) x4
E----3-------3---------------------------------------------------------
B------3-------3-------------------------------------------------------
G----------------------0-----------------------------------------------
D--2-----2-0-----0---2-------0-----------------------------------------
A------------------3-------2-------------------------------------------
E------------------------3--------------------------------------------- 

(Part Two) x4
E----------------------------------------------------------------------
B----------------------------------------------------------------------
G------0-------0-------------------------------------------------------
D----0---0---2-------0-------4h5---------------------------------------
A--2-------3-------2---2---2-------------------------------------------
E----------------3-------3---------------------------------------------

End on:
E-----
B-----
G-----
D--5--
A--5--
E--3—- (Let ring out)

Verse Repeats

Chorus: x4
E----------------------------------------------------------------------
B----------------------------------------------------------------------
G--9-9-9-9-9-9--7-7-7-7-7-7---------------5-5-5-5-5-5------------------
D--9-9-9-9-9-9--7-7-7-7-7-7--5-5-5-5-5-5--5-5-5-5-5-5------------------
A--7-7-7-7-7-7--5-5-5-5-5-5--5-5-5-5-5-5--3-3-3-3-3-3------------------
E----------------------------3-3-3-3-3-3-------------------------------
[ Tab from: http://www.guitartabs.cc/tabs/n/new_found_glory/broken_sound_tab_ver_2.html ]
Bridge: x4
E----------------------------------------------------------------------
B----------------------------------------------------------------------
G--4-4-4-4-4-4--5-5-5-5-5-5--------------------------------------------
D--4-4-4-4-4-4--5-5-5-5-5-5--------------------------------------------
A--2-2-2-2-2-2--3-3-3-3-3-3----0-2-3-2-0---0-2-3-2-0-------------------
E----------------------------3-----------3-----------------------------





On 4th time:
E----------------------------------------------------------------------
B----------------------------------------------------------------------
G--4-4-4-4-4-4--5-5-5-5-5-5--------------------------------------------
D--4-4-4-4-4-4--5-5-5-5-5-5--5-5-5-5-5-5-5-5-5-5-5-5-5-----------------
A--2-2-2-2-2-2--3-3-3-3-3-3--5-5-5-5-5-5-5-5-5-5-5-5-5-----------------
E----------------------------3-3-3-3-3-3-3—3-3—3-3-3-3-----------------

Chorus: x3
E----------------------------------------------------------------------
B----------------------------------------------------------------------
G--9-9-9-9-9-9--7-7-7-7-7-7---------------5-5-5-5-5-5------------------
D--9-9-9-9-9-9--7-7-7-7-7-7--5-5-5-5-5-5--5-5-5-5-5-5------------------
A--7-7-7-7-7-7--5-5-5-5-5-5--5-5-5-5-5-5--3-3-3-3-3-3------------------
E----------------------------3-3-3-3-3-3-------------------------------

On 4th time:
E----------------------------------------------------------------------
B----------------------------------------------------------------------
G--9-9-9-9-9-9--7-7-7-7-7-7--------------------------------------------
D--9-9-9-9-9-9--7-7-7-7-7-7--5-----------------------------------------
A--7-7-7-7-7-7--5-5-5-5-5-5--5-----------------------------------------
E----------------------------3-----------------------------------------

Verse:
Well I wake up
Something more than what I’m supposed to be
Something more than I have meant to show
What was I supposed to know
That I wanted
And I’ve waited

Chorus:
And I can’t be the one
To show you that life’s not simple enough
And I can’t be the one
To tell you why I’ve held this back for too long

Bridge:(chorus sung in background)
And my heart aches
These feelings I’m having inside for you
And my heart aches
How can I stop the pain?

Chorus:
And I can’t be the one
To show you that life’s not simple enough
And I can’t be the one
I’ve held this back for too long
Comments