New Found Glory - Boy Crazy Chords & Tabs

 

Boy Crazy Chords & Tabs

New Found Glory Chords & Tabs

Version: 2 Type: Tab 0 ratings
1 star 2 stars 3 stars 4 stars 5 stars
comments

Boy Crazy Tab

New Found Glory – Boy Crazy
Well the song has a lot of little shit in it you need to listen play it for a little bit before you get it probably, this is my first tab to so it mite not be very good but its right I know that. 


Into (Clean or Mild. Dist.) “x2”
e----------------------------------------------------------------------------------------------------------
b----------------------------------------------------------------------------------------------------------
g--------------6-------777-------------------------------------------------------------------------------
d---7-77-----6-------777-------4-44------2-22--------------------------------------------------------
a---7-77-----4------555--------4-44------2-22--------------------------------------------------------
E--5-55-------------------------2-22------0-00--------------------------------------------------------

then play it with dist. “x4”
e----------------------------------------------------------------------------------------------------------
b----------------------------------------------------------------------------------------------------------
g--------------6-------777-------------------------------------------------------------------------------
d---7-77-----6-------777-------4-44------2-22--------------------------------------------------------
a---7-77-----4------555--------4-44------2-22--------------------------------------------------------
E--5-55-------------------------2-22------0-00--------------------------------------------------------
[ Tab from: http://www.guitartabs.cc/tabs/n/new_found_glory/boy_crazy_tab_ver_2.html ]
 pre-Bridge (all of it’s palm mute but the last two notes) “x1”
e----------------------------------------------------------------------------------------------------------
b----------------------------------------------------------------------------------------------------------
g-----77777777--77777777----44444444----77777777-------------------------------------------
d----77777777--77777777----44444444----77777777--------------------------------------------
a---55555555--66666666----22222222----55555555---------------------------------------------
E----------------------------------------------------------------------------------------------------------

Bridge
e----------------------------------------------------------------------------------------------------------
b----------------------------------------------------------------------------------------------------------
g----121212121212///10///777777///10--------------------------------------------------------------d----121212121212///10///777777///10--------------------------------------------------------------
a----101010101010///8///555555/////8---------------------------------------------------------------
E----------------------------------------------------------------------------------------------------------

chorus
e----------------------------------------------------------------------------------------------------------
b----------------------------------------------------------------------------------------------------------
g-----------10--7777--10-------------------------------------------------------------------------------
d--7777---10--7777--10-------------------------------------------------------------------------------
a--7777---8----5555--8--------------------------------------------------------------------------------
E--5555--------------------------------------------------------------------------------------------------

lead / this part you have to hammer on the second note then go to the third mess around a little and you should figure it out

e----------------------------------------------------------------------------------------------------------
b----------------------------------------------------------------------------------------------------------
g----------9-----------------------------------------------------------------------------------------------
d---6=7--------------------------------------------------------------------------------------------------
a----------------------------------------------------------------------------------------------------------
E----------------------------------------------------------------------------------------------------------

hammer on (=)
Slides (///)
good luck 
new found glory kicks ass…
Comments