New Found Glory - Boy Crazy Chords & Tabs

 

Boy Crazy Chords & Tabs

New Found Glory Chords & Tabs

Version: 1 Type: Bass Tab 0 ratings
1 star 2 stars 3 stars 4 stars 5 stars
comments

Boy Crazy Bass Tab

#----------------------------------PLEASE NOTE---------------------------------#
#This file is the author's own work and represents their interpretation of the-#
#song. You may only use this file for private study, scholarship, or research.-#
#------------------------------------------------------------------------------#

New Found Glory - Boy Crazy
Submitted By: Jef Tod
EMail: jeftod@msn.com


Intro (x2) 
e|-------------------------------------|
B|-------------------------------------|
G|-------------------------------------|
D|-------------------------------------|
A|----------2222/4444------------------|  
E|--55x555------------ 22x222-0000000--|

Verse (x4)  
e|-------------------------------------|
B|-------------------------------------|
G|-------------------------------------|
D|-------------------------------------|
A|----------2222/4444------------------|  
E|--55x555------------ 22x222-0000000--|

"They target you with their eyes"
e|--------------------------------------|
B|--------------------------------------|
G|--------------------------------------|
D|--------------------------------------|
A|-555555--444444--222-2-2222---4-5555--|
E|--------------------------------------|


"She knocks you down"                   "Now, are you listening?"
e|--------------------------------------------------------------|
B|--------------------------------------------------------------|
G|--------------------------------------------------------------|
D|--------------------------------------------------------------|
A|--9-9-9-9-9-9-9-9-11-11-11-11-12-12-12-12-12--0-000-222--4/5--|
E|--------------------------------------------------------------|


Chorus

e|---------------------------------------------------------------|
B|---------------------------------------------------------------|
G|---------------------------------------------------------------|
D|---------------------------------------------------------------|
A|------7-5555/7-------7-5555/7-------7-5555/7-------7-5555/7--0-|
E|-5555-----------5555-----------5555-----------5555-------------|

Intro 
e|-------------------------------------|
B|-------------------------------------|
G|-------------------------------------|
D|-------------------------------------|
A|----------2222/4444------------------| 
E|--55x555------------ 22x222-0000000--|

Verse (x4)
e|-------------------------------------|
B|-------------------------------------|
G|-------------------------------------|
D|-------------------------------------|
A|----------2222/4444------------------|  
E|--55x555------------ 22x222-0000000--|
[ Tab from: http://www.guitartabs.cc/tabs/n/new_found_glory/boy_crazy_btab.html ]
"They target you with their eyes"
e|--------------------------------------|
B|--------------------------------------|
G|--------------------------------------|
D|--------------------------------------|
A|-555555--444444--222-2-2222---4-5555--|
E|--------------------------------------|
pm....................   ....

"She knocks you down"                   "Now, are you listening?"
e|--------------------------------------------------------------|
B|--------------------------------------------------------------|
G|--------------------------------------------------------------|
D|--------------------------------------------------------------|
A|--9-9-9-9-9-9-9-9-11-11-11-11-12-12-12-12-12--0-000-222--4/5--|
E|--------------------------------------------------------------|


Chorus

e|------------------------------------------------------------|
B|------------------------------------------------------------|
G|------------------------------------------------------------|
D|------------------------------------------------------------|
A|------7-5555/7-------7-5555/7-------7-5555/7-------7-5555/7-|
E|-5555-----------5555-----------5555-----------5555----------|

Bridge

"Think you're on top of the world"
e|-----------------------------------------------------------------|
B|-----------------------------------------------------------------|
G|-----------------------------------------------------------------|
D|-----------------------------------------------------------------|
A|-55-55-----------55-55-----------55-55-----------55-55-----------|
E|-------55-55-5-5-------55-55-5-5-------55-55-5-5-------55-55-5-5-|

e|-------------------------------------------------------|
B|-------------------------------------------------------|
G|-------------------------------------------------------|
D|-------------------------------------------------------|
A|---------------555555555555--------------5555-5555-5/7-|
E|-5555555555555--------------555555555555---------------|

Chorus

e|------------------------------------------------------------|
B|------------------------------------------------------------|
G|------------------------------------------------------------|
D|------------------------------------------------------------|
A|------7-5555/7-------7-5555/7-------7-5555/7-------7-5555/7-|
E|-5555-----------5555-----------5555-----------5555----------|

Bridge

"Think you're on top of the world"
e|------------------------------------------------------------------------|
B|------------------------------------------------------------------------|
G|------------------------------------------------------------------------|
D|------------------------------------------------------------------------|
A|-55-55-----------55-55-----------55-55-----------55-55------------------|
E|-------55-55-5-5-------55-55-5-5-------55-55-5-5-------55-55-5-5---55-55|

One Night Punk Pussies sucks big fuckin' cock! illegal operation 4 ever!!!

www.illegaloperation.cjb.net
================================================================================
Comments