New Found Glory - Black And Blue Chords & Tabs

 

Black And Blue Chords & Tabs

New Found Glory Chords & Tabs

Version: 3 Type: Bass Tab 0 ratings
1 star 2 stars 3 stars 4 stars 5 stars
comments

Black And Blue Bass Tab

word.

Intro
G----------------------------|
D----------------------------|
A----------------------------|
E-0-0-5--9-9-7--0-0-5--9--7--|

G-----------------------------------------------|
D-----------------------------------------------|
A-----------------------------------------------|
E-0-0-5--9-9-7--0-0-5--9--7--0-0-0-0-5-5-5-5-7--|

Verse
G-------------------------|
D-------------------------|  X4
A-------44444-------------|
E-00000-------5555555555--|

Chorus
G----------------------------------------------|
D----------------------------------------------|
A-44-44--------------44-44---------------------|
E--------00-00-55-55--------00-00-55-55-44-44--|

Post Chourus
G----------------------|
D----------------------|
A-4444-----------------|
E------0000---5-5-555--|

G-----------------------------|
D-----------------------------|
A-4444------------------------|
E------0000-5-5-555555555555--|
[ Tab from: http://www.guitartabs.cc/tabs/n/new_found_glory/black_and_blue_btab_ver_3.html ]
Verse
G-------------------------|
D-------------------------|  X4
A-------44444-------------|
E-00000-------5555555555--|

Chorus
G----------------------------------------------|
D----------------------------------------------|
A-44-44--------------44-44---------------------|
E--------00-00-55-55--------00-00-55-55-44-44--|

Post Chourus
G----------------------|
D----------------------|
A-4444-----------------|
E------0000---5-5-555--|

G-----------------------------|
D-----------------------------|
A-4444------------------------|
E------0000-5-5-555555555555--|

Verse
G-------------------------|
D-------------------------|  X2
A-------44444-------------|
E-00000-------5555555555--|

G--------------------|
D--------------------|
A-------44444--------|
E-00000-------55555--|

G-------------------------|
D-------------------------|
A-------44444-------------|
E-00000-------5555555555--|

Outro
G---------------|
D---------------|  X3
A---------------|
E-0~---5~---7~--|

4th time
G--------------------|
D--------------------|
A--------------------|
E-0~---5~---7~---0~--|

-hunter
Comments