New Found Glory - Better Off Dead Chords & Tabs

 

Better Off Dead Chords & Tabs

New Found Glory Chords & Tabs

Version: 2 Type: Tab 0 ratings
1 star 2 stars 3 stars 4 stars 5 stars
comments

Better Off Dead Tab

   
Artist: New Found Glory
 Track: Better Off Dead
 Album: New Found Glory
 Tabbed By Chris Rider & Chad Derouchie
 Drop D 


 Intro
 Guitar 1
 e----------------------------------|
 B----------------------------------|
 G-4-4------------------------------|
 D-4-4---4-4---2-2---6-6-x--4-4-----|
 A-2-2---4-4---2-2---6-6-x--4-4-----|
 D-------4-4---2-2---6-6-x--4-4-----|

 Intro
 Guitar 2
 e--------------|
 B--5--5--5-5---|
 G--5--5--5-5---|
 D--------------|
 A--------------|
 D--------------|

 Verse 
 Guitar 1
 e-------------------------|
 B-------------------------|
 G-------------------------|
 D-2~-------6---4----------|
 A-2~-------6---4----------|
 D-2~-------6---4----------|

 Guitar 2
 e-------------------------|
 B-------------------------|
 G--------4----------------|
 D----------6---4----------|
 A----------6---4----------|
 D----------6---4----------|

 Intro
 Guitar 1
 e----------------------------------|
 B----------------------------------|
 G-4-4------------------------------|
 D-4-4---4-4---2-2---6-6-x--4-4-----|
 A-2-2---4-4---2-2---6-6-x--4-4-----|
 D-------4-4---2-2---6-6-x--4-4-----|

 Intro
 Guitar 2
 e--------------|
 B--5--5--5-5---|
 G--5--5--5-5---|
 D--------------|
 A--------------|
 D--------------|

 Verse 
 Guitar 1
 e-------------------------|
 B-------------------------|
 G-------------------------|
 D-2~-------6---4----------|
 A-2~-------6---4----------|
 D-2~-------6---4----------|

 Guitar 2
 e-------------------------|
 B-------------------------|
 G------4------------------|
 D----------6---4----------|
 A----------6---4----------|
 D----------6---4----------|

 Chorus
 Guitar 1
 e--------------------------------------------------------|
 B--------------------------------------------------------|
 G--------------------------------------------------------|
 D-2-2-2-2-2-2-6-6-4-4-2-2-6-6-4-4-2-2-x-x-x-x-x-x-x-x-x--|
 A-2-2-2-2-2-2-6-6-4-4-2-2-6-6-4-4-2-2-x-x-x-x-x-x-x-x-x--|
 D-2-2-2-2-2-2-6-6-4-4-2-2-6-6-4-4-2-2-x-x-x-x-x-x-x-x-x--|
[ Tab from: http://www.guitartabs.cc/tabs/n/new_found_glory/better_off_dead_tab_ver_2.html ]
 Chorus
 Guitar 2
 e--------------------------------------------------------|
 B--------------------------------------------------------|
 G-2-2-2-2-2-8-6-4-8-6-4-2-2------2-2-----2-2------2-2----|
 D-2-2-2-2-2-8-6-4-8-6-4-2-2------2-2-----2-2------2-2----|
 A--------------------------------------------------------|
 D--------------------------------------------------------|

 Guitar 1 Plays first 
 Guitar 2 enter after pick slide
 e-------------------------------------|
 B-------------------------------------|
 G-4-4-x-------------4-4-x-------------|
 D-4-4-x-6--4-4-x-2--4-4-x-6-4-4-x-6---|
 A-2-2-x-6--4-4-x-2--2-2-x-6-4-4-x-6---|
 D-------6--4-4-x-2--------6-4-4-x-6---|

 Verse 
 Guitar 1
 e-------------------------|
 B-------------------------|
 G-------------------------|
 D-2~-------6---4----------|
 A-2~-------6---4----------|
 D-2~-------6---4----------|

 Guitar 2
 e-------------------------|
 B-------------------------|
 G------4------------------|
 D----------6---4----------|
 A----------6---4----------|
 D----------6---4----------|

 Chorus
 Guitar 1
 e--------------------------------------------------------|
 B--------------------------------------------------------|
 G--------------------------------------------------------|
 D-2-2-2-2-2-2-6-6-4-4-2-2-6-6-4-4-2-2-x-x-x-x-x-x-x-x-x--|
 A-2-2-2-2-2-2-6-6-4-4-2-2-6-6-4-4-2-2-x-x-x-x-x-x-x-x-x--|
 D-2-2-2-2-2-2-6-6-4-4-2-2-6-6-4-4-2-2-x-x-x-x-x-x-x-x-x--|

 Chorus
 Guitar 2
 e--------------------------------------------------------|
 B--------------------------------------------------------|
 G-2-2-2-2-2-8-6-4-8-6-4-2-2------2-2-----2-2------2-2----|
 D-2-2-2-2-2-8-6-4-8-6-4-2-2------2-2-----2-2------2-2----|
 A--------------------------------------------------------|
 D--------------------------------------------------------|

 Guitar 1 Plays first 
 Guitar 2 enter after pick slide
 e-------------------------------------|
 B-------------------------------------|
 G-4-4-x-------------4-4-x-------------|
 D-4-4-x-6--4-4-x-2--4-4-x-6-4-4-x-6---|
 A-2-2-x-6--4-4-x-2--2-2-x-6-4-4-x-6---|
 D-------6--4-4-x-2--------6-4-4-x-6---|
Comments