New Found Glory - Better Off Dead Chords & Tabs

 

Better Off Dead Chords & Tabs

New Found Glory Chords & Tabs

Version: 1 Type: Tab 0 ratings
1 star 2 stars 3 stars 4 stars 5 stars
comments

Better Off Dead Tab

   
Artist: New Found Glory
Song Title: Better off dead.
Album: New Found Glory

P.M means palm mute 

This songs simple i aint to sure on all of the lead apart from the 
main riff.

Chords used
  Bm   Fm   Em   Gm  
e--------------------
b--------------------
g-4-4----------------
d-4-4--4-4--2-2--6-6-
a-2-2--4-4--2-2--6-6-
E------2-2--0-0--4-4-

Intro/Verse
e------------------------
b------------------------
g-4-4--------------------
d-4-4--4-4--2-2--6-6-4-4-
a-2-2--4-4--2-2--6-6-4-4-
E------2-2--0-0--4-4-2-2-


Lead plays inbetween each chord change
e----------
b---7-7----
g---4-4----
d----------
a----------
E----------

Verse (Lyrics)

Ash's fall onto the ground, pull his guts out from frustation be 
carefull you might kill him.

Pre-Chorus
[ Tab from: http://www.guitartabs.cc/tabs/n/new_found_glory/better_off_dead_tab.html ]
Em             Gm     Fm      Em        Gm   Fm   Em      
Just cause he can't hear what you say doesn't mean that he's not 
Em         Gm     Fm  Em           Gm(P.M)      Fm(P.M)
listening, listen to your words you might like what you say.

Chorus

Lead plays inbetween each chord change
e--------------------------------------------------------
b--------------------------------------------------------
g-4-4-4-4-4----------------------------------------------
d-4-4-4-4-4-4-4-4-4-4-2-2--2-2--2-2----------------------
a-2-2-2-2-2-4-4-4-4-4-2-2--2-2--2-2-2-4------------------
E-----------2-2-2-2-2-0-0--0-0--0-0-4-2------------------

Bridge
e------------------
b------------------
g-4-4--------------
d-4-4-6-6-4-4-2-2--
a-2-2-6-6-4-4-2-2--
E-----4-4-2-2-0-0--

Thats it nice n easy punk song which only uses four chords...ah the 
simpelty to it :D

any question, coments, insults e-mail me at seph_sliss@hotmail.com 
Comments