New Found Glory - Belated Chords & Tabs

 

Belated Chords & Tabs

New Found Glory Chords & Tabs

Version: 1 Type: Bass Tab 0 ratings
1 star 2 stars 3 stars 4 stars 5 stars
comments

Belated Bass Tab

New Found Glory
Belated

Transcribed By: Ryan Huntsman  (IbanezBassMX)
Email: Ryan82184@aol.com

Standard Tunning

Intro
G-------------|
D-------------|  X2
A-------------|
E-0--2--4--2--|

Verse  (0:15) (Play when he starts singing)
G-------------------------------------------------|
D-------------------------------------------------|  X3
A-------------------------------------------------|
E-0--0-0-0-0--2--2-2-2-2--4--4-4-4-4--2--2-2-2-2--|

4th time
G-----------------------------------------|
D-----------------------------------------|
A-----------------------------------------|
E-0--0-0-0-0--2--2-2-2-2--4--4-4-4-4--2~--|

Chorus  (0:36)
G---------------------------------------------|
D---------------------------------------------|  X4
A---------------------------------------------|
E-0-0-0-0-0--5-5-5-5-5--2-2-2-2-2--5-5-5-5-5--|

G-------------|
D-------------|  X2
A-------------|
E-0--2--4--2--|

Verse  (1:07)  (Play when he starts singing)
G-------------------------------------------------|
D-------------------------------------------------|  X3
A-------------------------------------------------|
E-0--0-0-0-0--2--2-2-2-2--4--4-4-4-4--2--2-2-2-2--|
[ Tab from: http://www.guitartabs.cc/tabs/n/new_found_glory/belated_btab.html ]
4th time
G-----------------------------------------|
D-----------------------------------------|
A-----------------------------------------|
E-0--0-0-0-0--2--2-2-2-2--4--4-4-4-4--2~--|

Chorus  (1:26)
G---------------------------------------------|
D---------------------------------------------|  X4
A---------------------------------------------|
E-0-0-0-0-0--5-5-5-5-5--2-2-2-2-2--5-5-5-5-5--|

Interlude  (1:47)
G----------------------------------------------------------|
D----------------------------------------------------------|
A----------------------------------------------------------|
E-2-2-2-2-2-2-2-2-2-2-5-5-5-5-5-5-5-5-5-5-0-0-0-0-0-0-0-0--|

G--------------------------------------|
D--------------------------------------|
A--------------------------------------|
E-777777777\\10-10-10-10-10-10-10-10---|

G---------------------------------------------------------------------|
D---------------------------------------------------------------------|
A---------------------------------------------------------------------|
E-2-2-2-2-2-2-2-2-2-2-5-5-5-5-5-5-5-5-5-5-0-0-0-0-0-0-0-0-7777777777--|

REST

Intro  (2:13)
G-------------|
D-------------|  X1
A-------------|
E-0--2--4--2--|

Chorus  (2:18)
G---------------------------------------------|
D---------------------------------------------|  X8
A---------------------------------------------|
E-0-0-0-0-0--5-5-5-5-5--2-2-2-2-2--5-5-5-5-5--|

Outro  (3:00)
G----------------------|
D----------------------|  X1
A----------------------|
E-5-5-5--5--5-5--5--0--|
Comments