New Found Glory - Ballad For The Lost Romantics Chords & Tabs

 

Ballad For The Lost Romantics Chords & Tabs

New Found Glory Chords & Tabs

Version: 2 Type: Tab 0 ratings
1 star 2 stars 3 stars 4 stars 5 stars
comments

Ballad For The Lost Romantics Tab

hey snbritishfreak (snbritishfreak@hotmail.com) with yet another New Found Glory tab
(after my rave reviews of my other ones....) this one should b correct


INTRO/INTERLUDE

|--------------------------------|
|--------------------------------|
|-----------------10101010101010-|
|-10101010101010--10101010101010-| x7
|-10101010101010---8-8-8-8-8-8-8-|
|--8-8-8-8-8-8-8-----------------|


VERSE

|---------------------|
|---------------------|
|---------------------|
|-55555555--333333333-| x2
|-55555555--333333333-|
|-33333333--111111111-|


|--------------------------------|
|--------------------------------|
|-----------------10101010101010-|
|-10101010101010--10101010101010-| x4
|-10101010101010---8-8-8-8-8-8-8-|
|--8-8-8-8-8-8-8-----------------|
[ Tab from: http://www.guitartabs.cc/tabs/n/new_found_glory/ballad_for_the_lost_romantics_tab_ver_2.html ]
|--------------------------------|
|--------------------------------|
|-555555555555555555555555555555-|
|-555555555555555555555555555555-| 
|-333333333333333333333333333333-|  
|--------------------------------|

VERSE	

CHORUS

|-------------------------------------------|
|-------------------------------------------|
|-5--5--------------5--5-----------------7--|
|-5--5-2--2--3-33---5--5-2--2--3-33-xxx--7--|x2
|-3--3-2--2--3-33---3--3-2--2--3-33-xxx--5--|
|------0--0--1-11--------0--0--1-11-xxx-----|

|--------|
|--------|
|--------|
|----2-3-| x7
|-3------|
|--------|

|---------------------------|
|---------------------------|
|-555555--------------------|
|-555555-222222-33333333333-| x2
|-333333-222222-33333333333-|
|--------000000-11111111111-|

INTERLUDE 2 
VERSE
CHORUS
AFTER CHORUS
INTERLUDE 2 
VERSE
CHORUS

End:
|---------------------------|
|---------------------------|
|-555555--------------------|
|-555555-222222-33333333333-| 
|-333333-222222-33333333333-|
|--------000000-11111111111-|
Comments