New Found Glory - At Least Im Known For Something Chords & Tabs

 

At Least Im Known For Something Chords & Tabs

New Found Glory Chords & Tabs

Version: 2 Type: Tab 0 ratings
1 star 2 stars 3 stars 4 stars 5 stars
comments

At Least Im Known For Something Tab

Song: At Least I'm Known For Something
Artist: New Found Glory

Tabbed by: Stephen Adams 	
Email: bigsteve0788@aol.com

Tuning: Standard
*: palm mute
/: slide


Intro:
e|-------------------------------------------------------|
B|-------------------------------------------------------|
G|------------------6/4-2------------------6/8-9---------|x2
D|-2222222-2-2-2222-x/x-2-2222222-2-2-2222-x/x-x---------|
A|-2222222-2-2-2222-4/2-0-2222222-2-2-2222-4/6-7---------|
E|-0000000-0-0-0000-------0000000-0-0-0000---------------|
   ******      ***        ******      ***


Intro Cont.
e|-------------------------------------------------------|
B|-------------------------------------------------------|
G|------------------6/8-9------2-------------------------|
D|-2222222-2-2-2222-x/x-x-4-44-2-------------------------|
A|-2222222-2-2-2222-4/6-7-4-44-0-------------------------|
E|-0000000-0-0-0000-------2-22---------------------------|
   ******      ***


Verse:
e|-----------|--------------------------------------------|
B|-----------|--------------------------------------------|
G|-----------|-------------222-444---------4--------------|
D|-222222----|--2--444-666-222-444-444-666-4--------------|
A|-222222-x8-|--2--444-666-000-222-444-666-2--------------|
E|-000000----|--0--222-444---------222-444----------------|
   *****           **  **  **  **  **  **


Chorus:
e|-------------------------------------------------------|
B|-------------------------------------------------------|
G|-----------------6/4-2-----------------6/8-9-----------|
D|-222222-2-2-2222-x/x-2-222222-2-2-2222-x/x-x-----------|
A|-222222-2-2-2222-4/2-0-222222-2-2-2222-4/6-7-----------|
E|-000000-0-0-0000-------000000-0-0-0000-----------------|
   *****      ***        *****      ***

[ Tab from: http://www.guitartabs.cc/tabs/n/new_found_glory/at_least_im_known_for_something_tab_ver_2.html ]
Chorus Cont.
e|-------------------------------------------------------|
B|-------------------------------------------------------|
G|-----------------6/8-9-------2-------------------------|
D|-222222-2-2-2222-x/x-x--4-44-2-------------------------|
A|-222222-2-2-2222-4/6-7--4-44-0-------------------------|
E|-000000-0-0-0000--------2-22---------------------------|
   *****      ***     



Bridge:
e|--------------------------|---------------------------------|
B|--------------------------|---------------------------------|
G|-------------------22-----|---------------------22222222-4--|
D|-22-222-222-222-44-22-x12-|---44444444-66666666-22222222-4--|
A|-22-222-222-222-44-00-----|---44444444-66666666-00000000-2--|
E|-00-000-000-000-22--------|---22222222-44444444-------------|
   *  **  **  **  *  *


After 3rd Chorus:
e|-------------------------------------------------------|
B|-------------------------------------------------------|
G|-----------------6/4-2-----------------6/8-9-----------|
D|-222222-2-2-2222-x/x-2-222222-2-2-2222-x/x-x-----------|
A|-222222-2-2-2222-4/2-0-222222-2-2-2222-4/6-7-----------|
E|-000000-0-0-0000-------000000-0-0-0000-----------------|
   *****      ***        *****      ***


After 3rd Chorus Cont.
e|-------------------------------------------------------|
B|-------------------------------------------------------|
G|-----------------6/8-9---------------------------------|
D|-222222-2-2-2222-x/x-x--4-44---------------------------|
A|-222222-2-2-2222-4/6-7--4-44---------------------------|
E|-000000-0-0-0000--------2-22-04202420------------------|
   *****      ***              ********   


End With:
e|-------------------------------------------------------|
B|-------------------------------------------------------|
G|----------------------------------------2--------------|
D|-22-2-2-22---22-2-2-22---22-2-2-22--4---2--------------|
A|-22-2-2-22---22-2-2-22---22-2-2-22--4---0--------------|
E|-00-0-0-00---00-0-0-00---00-0-0-00--2------------------|


Order

Intro
Verse  
Chorus x2
Verse
Chorus x2
Bridge
Chorus 
After 3rd Chorus 
Ending
Comments