New Found Glory - All Downhill From Here Chords & Tabs

 

All Downhill From Here Chords & Tabs

New Found Glory Chords & Tabs

Version: 8 Type: Tab 0 ratings
1 star 2 stars 3 stars 4 stars 5 stars
comments

All Downhill From Here Tab

   
Tabbed by:GuitarMaster41
E-Mail:LukeMaster41@aol.com

Artist:New Found Glory
Album:Catalyst
Song:All Downhill From Here

Tuning:EBGDAE

/ = SLIDE UP
\ = SLIDE DOWN
h = HAMMER ON
p = PULL OFF
. = PALM MUTE

Q = 163

--------------------
Intro:
--------------------

Guitar 1
E|--------------|-------------|--------------|-------------|
B|--------------|-------------|--------------|-------------|
G|--------------|-------------|--------------|-------------|
D|----6/7-------|----6\4--4---|----6/7-------|----6\4--4/6-|
A|-4--4/5--7--7-|-7--4\2--2-0-|-4--4/5--7--7-|-7--4\2--2/4-|
E|-2-------5--5-|-5-----------|-2-------5--5-|-5-----------|

Guitar 2
E|--------------|-------------|----------------|---------------|
B|--------------|-------------|----------------|---------------|
G|----6/7-------|----6\4--4\2-|-11--9/11--9--9-|-9-------------|
D|-4--x----7--7-|-7--x----x---|--x--x-----x--x-|-x--11\9--9/11-|
A|-x--4/5--x--x-|-x--4\2--2\0-|--9--7/-9--7--7-|-7---x----x----|
E|-2-------5--5-|-5-----------|----------------|-----9\7--7/-9-|

Guitar 1
E|--------------|-------------|--------------|-------------|
B|--------------|-------------|--------------|-------------|
G|--------------|-------------|--------------|-------------|
D|----6/7-------|----6\4--4---|----6/7-------|----6\4--4/6-|
A|-4--4/5--7--7-|-7--4\2--2-0-|-4--4/5--7--7-|-7--4\2--2/4-|
E|-2-------5--5-|-5-----------|-2-------5--5-|-5-----------|

Guitar 2
E|----------------|----------------|----------------|---------------|
B|----------------|----------------|----------------|---------------|
G|-11--9/11--9--9-|-9--------13/14-|-11--9/11--9--9-|-9-------------|
D|--x--x-----x--x-|-x--11\9---x----|--x--x-----x--x-|-x--11\9--9/11-|
A|--9--7/-9--7--7-|-7---x----11/12-|--9--7/-9--7--7-|-7---x----x----|
E|----------------|-----9\7--------|----------------|-----9\7--7/-9-|


--------------------
Verse:
--------------------

Guitar 1 (A flanger effect it used.)
E|------------------|------------------|
B|------------------|------------------|
G|------------------|------------------|
D|------------------|------------------|
A|----------5-5-5-5-|----------2-2-2-2-|
E|-2-2-2-2----------|-5-5-5-5----------|
   . . . .  . . . .   . . . .  . . . .

Guitar 2
E|------------------|------------------|
B|------------------|------------------|
G|------------------|------------------|
D|------------------|------------------|
A|------------------|------------------|
E|------------------|------------------|

Guitar 1
E|------------------|------------------|
B|------------------|------------------|
G|------------------|------------------|
D|------------------|------------------|
A|----------5-5-5-5-|----------2-2-2-2-|
E|-2-2-2-2----------|-5-5-5-5----------|
   . . . .  . . . .   . . . .  . . . .

Guitar 2
E|------------------|------------------|
B|------------------|------------------|
G|------------------|------------------|
D|------------------|------------------|
A|------------------|------------------|
E|------------------|------------------|

Guitar 1
E|------------------|------------------|
B|------------------|------------------|
G|------------------|------------------|
D|------------------|------------------|
A|----------5-5-5-5-|----------2-2-2-2-|
E|-2-2-2-2----------|-5-5-5-5----------|
   . . . .  . . . .   . . . .  . . . .

Guitar 2
E|------------------|------------------|
B|------------------|------------------|
G|------------------|------------------|
D|------------------|------------------|
A|------------------|------------------|
E|------------------|------------------|

Guitar 1
E|------------------|------------|
B|------------------|------------|
G|------------------|------------|
D|------------------|----------4-|
A|-2-2-4-4--4-4-5-5-|-0-0-0-0--2-|
E|------------------|------------|
   . . . .  . . . .   . . . .

Guitar 2
E|------------------|------------|
B|------------------|------------|
G|------------------|------------|
D|------------------|------------|
A|------------------|------------|
E|------------------|------------|


--------------------
Pre-Chorus:
--------------------

Guitar 1
E|------------------|------------------|
B|------------------|------------------|
G|----------7-7-7---|----------4-4-4---|
D|-4-4-4----7-7-7---|-7-7-7----4-4-4---|
A|-4-4-4----5-5-5-0-|-7-7-7----2-2-2-0-|
E|-2-2-2-0----------|-5-5-5-0----------|

Guitar 2
E|----------------------|----------------------|
B|----------------------|----------------------|
G|-11-11-11--9--7-7-7-7-|-9-9-9-9--11-11-11-11-|
D|--x--x--x--x--x-x-x-x-|-x-x-x-x---x--x--x--x-|
A|--9--9--9--7--5-5-5-5-|-7-7-7-7---9--9--9--9-|
E|----------------------|----------------------|

Guitar 1
E|------------------|------------------|
B|------------------|------------------|
G|----------7-7-7---|----------4-4-4---|
D|-4-4-4----7-7-7---|-7-7-7----4-4-4---|
A|-4-4-4----5-5-5-0-|-7-7-7----2-2-2-0-|
E|-2-2-2-0----------|-5-5-5-0----------|

Guitar 2
E|----------------------|----------------------|
B|----------------------|----------------------|
G|-11-11-11--9--7-7-7-7-|-9-9-9-9--11-11-11-11-|
D|--x--x--x--x--x-x-x-x-|-x-x-x-x---x--x--x--x-|
A|--9--9--9--7--5-5-5-5-|-7-7-7-7---9--9--9--9-|
E|----------------------|----------------------|

Guitar 1
E|------------------|------------------|
B|------------------|------------------|
G|----------7-7-7---|----------4-4-4---|
D|-4-4-4----7-7-7---|-7-7-7----4-4-4---|
A|-4-4-4----5-5-5-0-|-7-7-7----2-2-2-0-|
E|-2-2-2-0----------|-5-5-5-0----------|

Guitar 2
E|--------------------------|------------------|
B|--------------------------|------------------|
G|-11-11-11--9--11-11-11-11-|-6-6-6-6--4-4-4---|
D|--x--x--x--x---x--x--x--x-|-x-x-x-x--x-x-x---|
A|--9--9--9--7---9--9--9--9-|-4-4-4-4--2-2-2-0-|
E|--------------------------|------------------|

Guitar 1
E|------------------|---|
B|------------------|---|
G|----------7-7-7---|-4-|
D|-4-4-4----7-7-7---|-4-|
A|-4-4-4----5-5-5-0-|-2-|
E|-2-2-2-0----------|---|

Guitar 2
E|-------------------------|---|
B|-------------------------|---|
G|-11-11-11--9--7-7-7-7--6-|-4-|
D|--x--x--x--x--x-x-x-x--x-|-x-|
A|--9--9--9--7--5-5-5-5--4-|-2-|
E|-------------------------|---|


--------------------
Chorus:
--------------------

Guitars 1 & 2
E|-0--0-0-0-0-0-0-|-0--0-0-0-0-0-0-|-2--2-2-2-2-2-2-|-0--0-0-0-0-0-0-|
B|-2--2-2-2-2-2-2-|-3--3-3-3-3-3-3-|-2--2-2-2-2-2-2-|-0--0-0-0-0-0-0-|
G|-2--2-2-2-2-2-2-|-2--2-2-2-2-2-2-|-2--2-2-2-2-2-2-|-1--1-1-1-1-1-1-|
D|-2--2-2-2-2-2-2-|-0--0-0-0-0-0-0-|-4--4-4-4-4-4-4-|-2--2-2-2-2-2-2-|
A|-0--0-0-0-0-0-0-|-0--0-0-0-0-0-0-|-4--4-4-4-4-4-4-|-2--2-2-2-2-2-2-|
E|----------------|----------------|-2--2-2-2-2-2-2-|-0--0-0-0-0-0-0-|

Guitar 3
E|-5--5-5-5-5-5-5-|-5--5-5-5-5-5-5-|-5--5-5-5-5-5-5-|-5--5-5-5-5-5-5-|
B|-5--5-5-5-5-5-5-|-5--5-5-5-5-5-5-|-7--7-7-7-7-7-7-|-5--5-5-5-5-5-5-|
G|-6--6-6-6-6-6-6-|-7--7-7-7-7-7-7-|-6--6-6-6-6-6-6-|-4--4-4-4-4-4-4-|
D|----------------|----------------|----------------|----------------|
A|----------------|----------------|----------------|----------------|
E|----------------|----------------|----------------|----------------|

Guitars 1 & 2
E|-0--0-0-0-0-0-0-|-0--0-0-0-0-0-0-|-2--2-2-2-2-2-2-|-0--0-0-0-0-0-0-|
B|-2--2-2-2-2-2-2-|-3--3-3-3-3-3-3-|-2--2-2-2-2-2-2-|-0--0-0-0-0-0-0-|
G|-2--2-2-2-2-2-2-|-2--2-2-2-2-2-2-|-2--2-2-2-2-2-2-|-1--1-1-1-1-1-1-|
D|-2--2-2-2-2-2-2-|-0--0-0-0-0-0-0-|-4--4-4-4-4-4-4-|-2--2-2-2-2-2-2-|
A|-0--0-0-0-0-0-0-|-0--0-0-0-0-0-0-|-4--4-4-4-4-4-4-|-2--2-2-2-2-2-2-|
E|----------------|----------------|-2--2-2-2-2-2-2-|-0--0-0-0-0-0-0-|

Guitar 3
E|-5--5-5-5-5-5-5-|-5--5-5-5-5-5-5-|-5--5-5-5-5-5-5-|-5--5-5-5-5-5-5-|
B|-5--5-5-5-5-5-5-|-5--5-5-5-5-5-5-|-7--7-7-7-7-7-7-|-5--5-5-5-5-5-5-|
G|-6--6-6-6-6-6-6-|-7--7-7-7-7-7-7-|-6--6-6-6-6-6-6-|-4--4-4-4-4-4-4-|
D|----------------|----------------|----------------|----------------|
A|----------------|----------------|----------------|----------------|
E|----------------|----------------|----------------|----------------|

Guitar 1
E|-0--0-0-0-0-0-0-|-0--0-0-0-0-0-0-|-2--2-2-2-2-2-2-|-0--0-0-0-0-0-0-|
B|-2--2-2-2-2-2-2-|-3--3-3-3-3-3-3-|-2--2-2-2-2-2-2-|-0--0-0-0-0-0-0-|
G|-2--2-2-2-2-2-2-|-2--2-2-2-2-2-2-|-2--2-2-2-2-2-2-|-1--1-1-1-1-1-1-|
D|-2--2-2-2-2-2-2-|-0--0-0-0-0-0-0-|-4--4-4-4-4-4-4-|-2--2-2-2-2-2-2-|
A|-0--0-0-0-0-0-0-|-0--0-0-0-0-0-0-|-4--4-4-4-4-4-4-|-2--2-2-2-2-2-2-|
E|----------------|----------------|-2--2-2-2-2-2-2-|-0--0-0-0-0-0-0-|

Guitar 2
E|----------------|----------------|----------------|-------------|
B|-------------5--|-------------0--|-------------5--|-------2-----|
G|-6-----6--------|-6-----6--------|-6-----6--------|-----2---2-4-|
D|---7-------7----|---7-------7----|---7-------7----|-2h4---------|
A|-----0---0------|-----0---0------|-----0---0------|-------------|
E|----------------|----------------|----------------|-------------|

Guitar 3
E|-5--5-5-5-5-5-5-|-5--5-5-5-5-5-5-|-5--5-5-5-5-5-5-|-5--5-5-5-5-5-5-|
B|-5--5-5-5-5-5-5-|-5--5-5-5-5-5-5-|-7--7-7-7-7-7-7-|-5--5-5-5-5-5-5-|
G|-6--6-6-6-6-6-6-|-7--7-7-7-7-7-7-|-6--6-6-6-6-6-6-|-4--4-4-4-4-4-4-|
D|----------------|----------------|----------------|----------------|
A|----------------|----------------|----------------|----------------|
E|----------------|----------------|----------------|----------------|

Guitar 1
E|-0--0-0-0-0-0-0-|-0--0-0-0-0-0-0-|-2--2-2-2-2-2-2-|----------------------|
B|-2--2-2-2-2-2-2-|-3--3-3-3-3-3-3-|-2--2-2-2-2-2-2-|----------------------|
G|-2--2-2-2-2-2-2-|-2--2-2-2-2-2-2-|-2--2-2-2-2-2-2-|----------------------|
D|-2--2-2-2-2-2-2-|-0--0-0-0-0-0-0-|-4--4-4-4-4-4-4-|---------2----------2-|
A|-0--0-0-0-0-0-0-|-0--0-0-0-0-0-0-|-4--4-4-4-4-4-4-|---------2----------2-|
E|----------------|----------------|-2--2-2-2-2-2-2-|-0-0-0-0-0--0-0-0-0-0-|
                                                      . . . .    . . . .
Guitar 2
E|----------------|----------------|----------------|----------------------|
B|-------------5--|-------------0--|-------------5--|----------------------|
G|-6-----6--------|-6-----6--------|-6-----6--------|-9-9-9-9-9--9-9-9-9-9-|
D|---7-------7----|---7-------7----|---7-------7----|-x-x-x-x-x--x-x-x-x-x-|
A|-----0---0------|-----0---0------|-----0---0------|-7-7-7-7-7--7-7-7-7-7-|
E|----------------|----------------|----------------|----------------------|

Guitar 3
E|-5--5-5-5-5-5-5-|-5--5-5-5-5-5-5-|-5--5-5-5-5-5-5-|----------------------|
B|-5--5-5-5-5-5-5-|-5--5-5-5-5-5-5-|-7--7-7-7-7-7-7-|----------------------|
G|-6--6-6-6-6-6-6-|-7--7-7-7-7-7-7-|-6--6-6-6-6-6-6-|----------------------|
D|----------------|----------------|----------------|----------------------|
A|----------------|----------------|----------------|----------------------|
E|----------------|----------------|----------------|----------------------|


--------------------
Interlude:
--------------------
[ Tab from: http://www.guitartabs.cc/tabs/n/new_found_glory/all_downhill_from_here_tab_ver_8.html ]
Guitar 1
E|--------------|-------------|--------------|-------------|
B|--------------|-------------|--------------|-------------|
G|--------------|-------------|--------------|-------------|
D|----6/7-------|----6\4--4---|----6/7-------|----6\4--4/6-|
A|-4--4/5--7--7-|-7--4\2--2-0-|-4--4/5--7--7-|-7--4\2--2/4-|
E|-2-------5--5-|-5-----------|-2-------5--5-|-5-----------|

Guitar 2
E|--------------|-----------------|----------------|---------------|
B|--------------|-----------------|----------------|---------------|
G|----6/7-------|-----------13/14-|-11--9/11--9--9-|-9-------------|
D|-4--x----7--7-|-7--11\9----x----|--x--x-----x--x-|-x--11\9--9/11-|
A|-x--4/5--x--x-|-x---x-----11/12-|--9--7/-9--7--7-|-7---x----x----|
E|-2-------5--5-|-5---9\7---------|----------------|-----9\7--7/-9-|


--------------------
Verse:
--------------------

Guitar 1
E|------------------|------------------|
B|------------------|------------------|
G|------------------|------------------|
D|------------------|------------------|
A|----------5-5-5-5-|----------2-2-2-2-|
E|-2-2-2-2----------|-5-5-5-5----------|
   . . . .  . . . .   . . . .  . . . .

Guitar 2
E|------------------|------------------|
B|------------------|------------------|
G|------------------|------------------|
D|------------------|------------------|
A|-4-4-4-4----------|-4-4-4-4--2-2-2-2-|
E|----------2-2-2-2-|------------------|
   . . . .  . . . .   . . . .  . . . .

Guitar 1
E|------------------|------------------|
B|------------------|------------------|
G|------------------|------------------|
D|------------------|------------------|
A|----------5-5-5-5-|----------2-2-2-2-|
E|-2-2-2-2----------|-5-5-5-5----------|
   . . . .  . . . .   . . . .  . . . .

Guitar 2
E|------------------|------------------|
B|------------------|------------------|
G|------------------|------------------|
D|------------------|------------------|
A|-4-4-4-4----------|-4-4-4-4--2-2-2-2-|
E|----------2-2-2-2-|------------------|
   . . . .  . . . .   . . . .  . . . .

Guitar 1
E|------------------|------------------|------------------|----------------|
B|------------------|------------------|------------------|----------------|
G|------------------|------------------|------------------|----------------|
D|------------------|----------4-4-4-4-|----------7-7-7-7-|-4p2------------|
A|----------5-5-5-5-|----------2-2-2-2-|-4-4-4-4--5-5-5-5-|----5p4-2h4p2p0-|
E|-2-2-2-2----------|-5-5-5-5----------|-2-2-2-2----------|----------------|
   . . . .  . . . .   . . . .  . . . .   . . . .  . . . .

Guitar 2
E|------------------|------------------|------------------|----------------|
B|------------------|------------------|------------------|----------------|
G|------------------|------------------|------------------|----------------|
D|------------------|------------------|------------------|-4p2------------|
A|-4-4-4-4----------|-4-4-4-4--2-2-2-2-|-4-4-4-4----------|----5p4-2h4p2p0-|
E|----------2-2-2-2-|------------------|----------2-2-2-2-|----------------|
   . . . .  . . . .   . . . .  . . . .   . . . .  . . . .


--------------------
Pre-Chorus
--------------------


--------------------
Chorus
--------------------


--------------------
Interlude:
--------------------

Guitar 1
E|--------------|----------|--------------|----------|
B|--------------|----------|--------------|----------|
G|--------------|----------|--------------|----------|
D|----6/7-------|--------4-|----6/7-------|--------4-|
A|-4--4/5--7--7-|-7--x-0-2-|-4--4/5--7--7-|-7--x-0-2-|
E|-2-------5--5-|-5--x-----|-2-------5--5-|-5--x-----|

Guitar 2
E|--------------|----------|--------------|----------|
B|--------------|----------|--------------|----------|
G|--------------|----------|--------------|----------|
D|--------------|----------|--------------|--------4-|
A|--------------|----------|--------------|------x-2-|
E|--------------|----------|-0------------|----------|
                        (Feedback!)

--------------------
Bridge:
--------------------

Guitars 1 & 2
E|--------------|----------|--------------|-------------|
B|--------------|----------|--------------|-------------|
G|--------------|----------|--------------|-------------|
D|----6/7-------|--------4-|----6/7-------|----6-4--4---|
A|-4--4/5--7--7-|-7--x-0-2-|-4--4/5--7--7-|-7--4-2--2-0-|
E|-2-------5--5-|-5--x-----|-2-------5--5-|-5-----------|

Guitars 1 & 2
E|--------------|----------|--------------|------|
B|--------------|----------|--------------|------|
G|--------------|----------|--------------|------|
D|----6/7-------|--------4-|----6/7-------|----2-|
A|-4--4/5--7--7-|-7--x-0-2-|-4--4/5--7--7-|-7--2-|
E|-2-------5--5-|-5--x-----|-2-------5--5-|-5--0-|


--------------------
Pre-Chorus:
--------------------

Guitar 1
E|------------------|------------------|
B|------------------|------------------|
G|----------7-7-7---|----------4-4-4---|
D|-4-4-4----7-7-7---|-7-7-7----4-4-4---|
A|-4-4-4----5-5-5-0-|-7-7-7----2-2-2-0-|
E|-2-2-2-0----------|-5-5-5-0----------|

Guitar 2
E|----------------------|----------------------|
B|----------------------|----------------------|
G|-11-11-11--9--7-7-7-7-|-9-9-9-9--11-11-11-11-|
D|--x--x--x--x--x-x-x-x-|-x-x-x-x---x--x--x--x-|
A|--9--9--9--7--5-5-5-5-|-7-7-7-7---9--9--9--9-|
E|----------------------|----------------------|

Guitar 1
E|------------------|------------------|
B|------------------|------------------|
G|----------7-7-7---|----------4-4-4---|
D|-4-4-4----7-7-7---|-7-7-7----4-4-4---|
A|-4-4-4----5-5-5-0-|-7-7-7----2-2-2-0-|
E|-2-2-2-0----------|-5-5-5-0----------|

Guitar 2
E|----------------------|-------------------------|
B|----------------------|-------------------------|
G|-11-11-11--9--7-7-7-7-|-9-9/14-14-14--13--11--9-|
D|--x--x--x--x--x-x-x-x-|-x-x--x--x--x---x---x--x-|
A|--9--9--9--7--5-5-5-5-|-7-7/12-12-12--11---9--7-|
E|----------------------|-------------------------|

Guitar 1
E|------------------|------------------|
B|------------------|------------------|
G|----------7-7-7---|----------4-4-4---|
D|-4-4-4----7-7-7---|-7-7-7----4-4-4---|
A|-4-4-4----5-5-5-0-|-7-7-7----2-2-2-0-|
E|-2-2-2-0----------|-5-5-5-0----------|

Guitar 2
E|--------------------------|------------------|
B|--------------------------|------------------|
G|-11-11-11--9--11-11-11-11-|-6-6-6-6--4-4-4---|
D|--x--x--x--x---x--x--x--x-|-x-x-x-x--x-x-x---|
A|--9--9--9--7---9--9--9--9-|-4-4-4-4--2-2-2-0-|
E|--------------------------|------------------|

Guitar 1
E|------------------|------------------|
B|------------------|------------------|
G|----------7-7-7---|----------4-4-4-4-|
D|-4-4-4----7-7-7---|-7-7-7----4-4-4-4-|
A|-4-4-4----5-5-5-0-|-7-7-7----2-2-2-2-|
E|-2-2-2-0----------|-5-5-5-0----------|

Guitar 2
E|-------------------------|----------------|
B|-------------------------|----------------|
G|-11-11-11--9--7-7-7-7--6-|-9-9-9----------|
D|--x--x--x--x--x-x-x-x--x-|-x-x-x--9-9-9-9-|
A|--9--9--9--7--5-5-5-5--4-|-7-7-7--x-x-x-x-|
E|-------------------------|--------7-7-7-7-|


--------------------
Chorus:
--------------------

Guitar 1 (Played lightly on an acoustic guitar.)
E|-0--0-0--0--0-0-|-0--0-0--0-0-0-0-|-2--2-2--2--2-2-|-0--0-0--0-0-0-0-|
B|-2--2-2--2--2-2-|-3--3-3--3-3-3-3-|-2--2-2--2--2-2-|-0--0-0--0-0-0-0-|
G|-2--2-2--2--2-2-|-2--2-2--2-2-2-2-|-2--2-2--2--2-2-|-1--1-1--1-1-1-1-|
D|-2--2-2--2--2-2-|-0--0-0--0-0-0-0-|-4--4-4--4--4-4-|-2--2-2--2-2-2-2-|
A|-0--0-0--0--0-0-|-0--0-0--0-0-0-0-|-4--4-4--4--4-4-|-2--2-2--2-2-2-2-|
E|----------------|-----------------|-2--2-2--2--2-2-|-0--0-0--0-0-0-0-|

Guitar 2 (Hold this chord through this part.)
E|----------------|-----------------|----------------|-----------------|
B|----------------|-----------------|----------------|-----------------|
G|-2--------------|-----------------|----------------|-----------------|
D|-2--------------|-----------------|----------------|-----------------|
A|-0--------------|-----------------|----------------|-----------------|
E|----------------|-----------------|----------------|-----------------|

Guitar 1
E|-0--0-0--0--0-0-|-0--0-0--0-0-0-0-|-2--2-2--2--2-2-|-0--0-0--0-0-0-0-|
B|-2--2-2--2--2-2-|-3--3-3--3-3-3-3-|-2--2-2--2--2-2-|-0--0-0--0-0-0-0-|
G|-2--2-2--2--2-2-|-2--2-2--2-2-2-2-|-2--2-2--2--2-2-|-1--1-1--1-1-1-1-|
D|-2--2-2--2--2-2-|-0--0-0--0-0-0-0-|-4--4-4--4--4-4-|-2--2-2--2-2-2-2-|
A|-0--0-0--0--0-0-|-0--0-0--0-0-0-0-|-4--4-4--4--4-4-|-2--2-2--2-2-2-2-|
E|----------------|-----------------|-2--2-2--2--2-2-|-0--0-0--0-0-0-0-|

Guitar 2
E|----------------|-----------------|----------------|-----------------|
B|----------------|-----------------|----------------|-----------------|
G|----------------|-----------------|----------------|-----------------|
D|----------------|-----------------|----------------|-----------------|
A|----------------|-----------------|----------------|-----------------|
E|----------------|-----------------|----------------|-----------------|

Guitar 1
E|-0--0-0--0--0-0-|-0--0-0--0-0-0-0-|-2--2-2--2--2-2-|-0--0-0--0-0-0-0-|
B|-2--2-2--2--2-2-|-3--3-3--3-3-3-3-|-2--2-2--2--2-2-|-0--0-0--0-0-0-0-|
G|-2--2-2--2--2-2-|-2--2-2--2-2-2-2-|-2--2-2--2--2-2-|-1--1-1--1-1-1-1-|
D|-2--2-2--2--2-2-|-0--0-0--0-0-0-0-|-4--4-4--4--4-4-|-2--2-2--2-2-2-2-|
A|-0--0-0--0--0-0-|-0--0-0--0-0-0-0-|-4--4-4--4--4-4-|-2--2-2--2-2-2-2-|
E|----------------|-----------------|-2--2-2--2--2-2-|-0--0-0--0-0-0-0-|

Guitar 2
E|----------------|----------------|----------------|-------------|
B|-------------5--|-------------0--|-------------5--|-------2-----|
G|-6-----6--------|-6-----6--------|-6-----6--------|-----2---2-4-|
D|---7-------7----|---7-------7----|---7-------7----|-2h4---------|
A|-----0---0------|-----0---0------|-----0---0------|-------------|
E|----------------|----------------|----------------|-------------|

Guitar 1 (Hold this chord, listen to song for timing.)
E|-0-|
B|-2-|
G|-2-|
D|-2-|
A|-0-|
E|---|

Guitar 2 (Hold this chord, listen to song for timing.)
E|---|
B|---|
G|-6-|
D|-7-|
A|-0-|
E|---|

Guitars 1 & 2
E|----------------------|
B|----------------------|
G|----------------------|
D|---------2----------2-|
A|---------2----------2-|
E|-0-0-0-0-0--0-0-0-0-0-|
   . . . .     . . . .


--------------------
Chorus
--------------------


--------------------
Outro:
--------------------

Guitar 1
E|--------------|-------------|--------------|---|
B|--------------|-------------|--------------|---|
G|--------------|-------------|--------------|---|
D|--------------|----6\4--4---|----6/7-------|---|
A|-4------------|----4\2--2-0-|-4--4/5--7--7-|-7-|
E|-2------------|-------------|-2-------5--5-|-5-|

Guitar 2
E|--------------|-------------|--------------|---|
B|--------------|-------------|--------------|---|
G|--------------|-------------|--------------|---|
D|----6/7-------|----6\4--4---|----6/7-------|---|
A|-4--4/5--7--7-|-7--4\2--2-0-|-4--4/5--7--7-|-7-|
E|-2-------5--5-|-5-----------|-2-------5--5-|-5-|
Comments