New Found Glory - All Downhill From Here Chords & Tabs

 

All Downhill From Here Chords & Tabs

New Found Glory Chords & Tabs

Version: 7 Type: Tab 0 ratings
1 star 2 stars 3 stars 4 stars 5 stars
comments

All Downhill From Here Tab

   
----------------------------------------------------------------------------
                      ALL DOWHHILL FROM HERE - New Found Glory
----------------------------------------------------------------------------
Tabbed By: failurepunk182 (Alex Swisher)
Email: denial_07@hotmail.com

Gtr. 1 (Top Staff)
Gtr. 2 (Bottom Staff)

Intro
|--------------|---------------|-----------------|---------------|
|--------------|---------------|-----------------|---------------|
|--------------|---------------|-----------------|---------------|
|----6s7-------|------6s4--4---|------6s=7-------|------6s4--4s6-|
|-4--4s5--7--7-|-7--x-4s2--2-0-|---4--4s=5--7--7-|-7----4s2--2s4-|
|-2-------5--5-|-5--x----------|---2--------5--5-|-5-------------|
|                                                                |
|                                                                |
|--------------|---------------|-----------------|---------------|
|--------------|---------------|-----------------|---------------|
|-6--6-7-------|----6-6-4--4-6-|-/11--9S11--9--9-|-9----6-4--4-6-|
|-x--x-x--7--7-|-7--x-x-x--x-x-|---x--x-----x--x-|-x--x-x-x--x-x-|
|-4--4-5--x--x-|-x--4-4-2--2-4-|--/9--7S=9--7--7-|-7--x-4-2--2-4-|
|---------5--5-|-5-------------|-----------------|---------------|

 
|-----------------|-----------------|----------------|--------------|
|-----------------|-----------------|----------------|--------------|
|-----------------|-----------------|----------------|--------------|
|-----6s7---------|------6s4---4----|-----6s7--------|-----6s4--4s6-|
|--4--4s5--  7--7-|-7--x-4s2---2--0-|--4--4s5---7--7-|-7---4s2--2s4-|
|--2---------5--5-|-5--x------------|--2--------5--5-|-5------------|
|                                                                   |
|-----------------|-----------------|----------------|--------------|
|-----------------|-----------------|----------------|--------------|
|-11--9-/11--9--9-|-9----6-4--13-14-|-11--9-11--9--9-|-9---6-4--4-6-|
|--x--x------x--x-|-x--x-x-x---x--x-|--x--x--x--x--x-|-x---x-x--x-x-|
|--9--7--/9--7--7-|-7--x-4-2--11-12-|--9--7--9--7--7-|-7---4-2--2-4-|
|-----------------|-----------------|----------------|--------------|


Verse
|PM----------------------------------------------------------------------|
|-----------------|-----------------|-----------------|------------------|
|-----------------|-----------------|-----------------|------------------|
|-----------------|-----------------|-----------------|------------------|
|-----------------|-----------------|-----------------|------------------|
|---------5-5-5-5-|-0-0-0-0-2-2-2-2-|---------5-5-5-5-|-0-0-0-0-2-2-2-2--|
|-2-2-2-2---------|-----------------|-2-2-2-2---------|------------------|


                                                                
|PM--------------------------------------------------------------------|
|-----------------|-----------------|-----------------|----------------|
|-----------------|-----------------|-----------------|----------------|
|-----------------|-----------------|-----------------|----------------|
|-----------------|-----------------|-----------------|---------4--4---|
|---------5-5-5-5-|-0-0-0-0-2-2-2-2-|---------5-5-5-5-|-0-0-0-0-2--2---|
|-2-2-2-2---------|-----------------|-2-2-2-2---------|----------------|


Pre-Chorus
|--------------------|-----------------|--------------------|------------------|
|--------------------|-----------------|--------------------|------------------|
|--------------------|-----------------|--------------------|------------------|
|------------7-7-7-0-|-2-2-2-2-4-4-4-0-|------------7-7-7-0-|-2-2-2-2-4-4-4-0--|
|--4--4--4-0-5-5-5-0-|-0-0-0-0-2-2-2-0-|--4--4--4-0-5-5-5-0-|-0-0-0-0-2-2-2-0--|
|--2--2--2-0---------|-----------------|--2--2--2-0---------|------------------|
|                                                                              |
|                                                                              |
|--------------------|-----------------|--------------------|------------------|
|--------------------|-----------------|--------------------|------------------|
|-11-11-11---7-7-7---|-9-9-9---4-4-4---|-11-11-11---7-7-7---|-9-9-9---4-4-4----|
|--x--x--x---x-x-x---|-x-x-x---x-x-x---|--x--x--x---x-x-x---|-x-x-x---x-x-x----|
|--9--9--9---5-5-5---|-7-7-7---2-2-2---|--9--9--9---5-5-5---|-7-7-7---2-2-2----|
|--------------------|-----------------|--------------------|------------------|


  
|-----------------------|-----------------|--------------------|--------|
|-----------------------|-----------------|--------------------|--------|
|-----------------------|-----------------|--------------------|--------|
|-------------7--7--7-0-|-2-2-2-2-4-4-4-0-|------------7-7-7-0-|-4------|
|--4--4--4-0--5--5--5-0-|-0-0-0-0-2-2-2-0-|--4--4--4-0-5-5-5-0-|-2------|
|--2--2--2-0------------|-----------------|--2--2--2-0---------|--------|
|                                                                       |
|-----------------------|-----------------|--------------------|--------|
|-----------------------|-----------------|--------------------|--------|
|-11-11-11-9-11-11-11-9-|-6-6-6---7-7-7---|-11-11-11-9-7-7-7-6-|-4------|
|--x--x--x-x--x--x--x-x-|-x-x-x---x-x-x---|--x--x--x-x-x-x-x-x-|-x------|
|--9--9--9-7--9--9--9-7-|-4-4-4---5-5-5---|--9--9--9-7-5-5-5-4-|-2------|
|-----------------------|-----------------|--------------------|--------|


   
Chorus
|----------------|----------------|----------------|----------------|
|----------------|-3--3-3-3-3-3---|----------------|----------------|
|--2--2-2-2--2-2-|-2--2-2-2-2-2---|----------------|----------------|
|--2--2-2-2--2-2-|-0--0-0-0-0-0-0-|-4--4-4-4-4-4---|-2--2-2-2--2-2--|
|--0--0-0-0--0-0-|-0--0-0-0-0-0-0-|-4--4-4-4-4-4-0-|-2--2-2-2--2-2--|
|------------0-0-|--------------0-|-2--2-2-2-2-2-0-|-0--0-0-0--0-0--|
|
|   
|--5------5------|-5------5-------|-5------5-------|-5------5-------|
|-----5------5---|----5-------5---|----5-------5---|----5------5----|
|----------------|----------------|----------------|----------------|
|----------------|----------------|----------------|----------------|
|----------------|----------------|----------------|----------------|
|----------------|----------------|----------------|----------------|


    
|-------------------|-------------------|
|-------------------|-3---3-3--3--3-3---|
|-2---2-2--2----2-2-|-2---2-2--2--2-2---|
|-2---2-2--2----2-2-|-0---0-0--0--0-0-0-|
|-0---0-0--0----0-0-|-0---0-0--0--0-0-0-|
|---------------0-0-|-----------------0-|
|                                       |
|                                       |
|-------------------|-------------------|
|-2-----2-------5---|-2-----2-------3---|
|---2---------2-----|---2---------2-----|
|-----2-------------|-----2-------------|
|-------------------|-------------------|
|-------------------|-------------------|




|-------------------|-------------------|
|-------------------|-------------------|
|-------------------|-------------------|
|-4---4-4--4--4-4---|-2---2-2--2---2-2--|
|-4---4-4--4--4-4-0-|-2---2-2--2---2-2--|
|-2---2-2--2--2-2-0-|-0---0-0--0---0-0--|
|
|-------------------|-------------------|
|-2-----2-------5---|-------2-----------|
|---2---------2-----|-----2--------4----|
|-----2-------------|-2h4---------------|
|-------------------|-------------------|
|-------------------|-------------------|

|-------------------|-------------------|
|-------------------|-3---3-3--3--3-3---|
|-2---2-2--2----2-2-|-2---2-2--2--2-2---|
|-2---2-2--2----2-2-|-0---0-0--0--0-0-0-|
|-0---0-0--0----0-0-|-0---0-0--0--0-0-0-|
|---------------0-0-|-----------------0-|
|
|-------------------|-------------------|
|-2-----2-------5---|-2-----2-------3---|
|---2---------2-----|---2---------2-----|
|-----2-------------|-----2-------------|
|-------------------|-------------------|
|-------------------|-------------------|



|-------------------|------------------------|
|-------------------|------------------------|
|-------------------|------------------------|
|-4---4-4--4--4-4---|---------2----------2---|
|-4---4-4--4--4-4-0-|-2-2-2-2-2--2-2-2-2-2---|
|-2---2-2--2--2-2-0-|-0-0-0-0-0--0-0-0-0-0---|
|                                            |
|-------------------|------------------------|
|-2-----2-------5---|------------------------|
|---2---------2-----|-x-x-x-x-9--x-x-x-x-9---|
|-----2-------------|-x-x-x-x-9--x-x-x-x-9---|
|-------------------|-x-x-x-x-7--x-x-x-x-7---|
|-------------------|------------------------|


Interlude
|--------------|-----------------|----------------|---------------|
|--------------|-----------------|----------------|---------------|
|--------------|-----------------|----------------|---------------|
|----6s7-------|------6s4---4----|-----6s=7-------|------6s4--4s6-|
|-4--4s5--7--7-|-7--x-4s2---2--0-|--4--4s=5--7--7-|-7----4s2--2s4-|
|-2-------5--5-|-5--x------------|--2--------5--5-|-5-------------|
|                                                                 |
|                                                                 |
|--------------|-----------------|----------------|---------------|
|--------------|-----------------|----------------|---------------|
|-6--6-7-------|------6-4--13-14-|-11--9-11--9--9-|-9----6-4--4-6-|
|-x--x-x--7--7-|-7--x-x-x---x--x-|--x--x--x--x--x-|-x--x-x-x--x-x-|
|-4--4-5--x--x-|-x--x-4-2--11-12-|--9--7--9--7--7-|-7--x-4-2--2-4-|
|---------5--5-|-5---------------|----------------|---------------|


[ Tab from: http://www.guitartabs.cc/tabs/n/new_found_glory/all_downhill_from_here_tab_ver_7.html ]
Verse 2 
|PM----------------------------------------------------------------------|
|-----------------|-----------------|-----------------|------------------|
|-----------------|-----------------|-----------------|------------------|
|-----------------|-----------------|-----------------|------------------|
|-----------------|-----------------|-----------------|------------------|
|---------5-5-5-5-|-0-0-0-0-2-2-2-2-|---------5-5-5-5-|-0-0-0-0-2-2-2-2--|
|-2-2-2-2---------|-----------------|-2-2-2-2---------|------------------|
|                                                                        |
|                                                                        |
|PM----------------------------------------------------------------------|
|-----------------|-----------------|-----------------|------------------|
|-----------------|-----------------|-----------------|------------------|
|-----------------|-----------------|-----------------|------------------|
|-----------------|-----------------|-----------------|------------------|
|-4-4-4-4---------|-4-4-4-4-2-2-2-2-|-4-4-4-4---------|-4-4-4-4-2-2-2-2--|
|---------2-2-2-2-|-----------------|---------2-2-2-2-|------------------|


                                                          
                            
|PM----------------------------------------------------------------------|
|-----------------|-----------------|-----------------|------------------|
|-----------------|-----------------|-----------------|------------------|
|-----------------|-----------------|---------2-2-2-2-|------------------|
|---------0-0-0-0-|---------4-4-4-4-|---------0-0-0-0-|-2-2-2-2-4-4-4-4--|
|-----------------|-0-0-0-0-2-2-2-2-|-4-4-4-4---------|-0-0-0-0-2-2-2-2--|
|-2-2-2-2---------|-----------------|-2-2-2-2---------|------------------|
|                                                                        |
| PM--------------------------------------------------|                  |
|-----------------|-----------------|-----------------|------------------|
|-----------------|-----------------|-----------------|------------------|
|-----------------|-----------------|-----------------|------------------|
|-----------------|-----------------|-----------------|-4-2-0------------|
|-4-4-4-4---------|-4-4-4-4-2-2-2-2-|-4-4-4-4---------|-------4-2-4-2-0--|
|---------2-2-2-2-|-----------------|---------2-2-2-2-|------------------|


  
 
Bridge 
|--------------|----------------|----------------|---------------|
|--------------|----------------|----------------|---------------|
|--------------|----------------|----------------|---------------|
|----6s7-------|------0-4-------|------6s7-------|--------0-4----|
|-4--4s5--7--7-|-7--x-0-2-------|--4---4s5--7--7-|--7---x-0-2----|
|-2-------5--5-|-5--x-0---------|--2--------5--5-|--5---x-0------|
|                                                                |
|                                                                |
|--------------|----------------|----------------|---------------|
|--------------|----------------|----------------|---------------|
|--------------|----------------|----------------|---------------|
|--------------|----------------|----------------|--------0-4----|
|--------------|----------------|----------------|--------0-2----|
|--------------|----------------|----Feedback----|------0--------|


|--------------|-------------|--------------|---------------|
|--------------|-------------|--------------|---------------|
|--------------|-------------|--------------|---------------|
|----6s7-------|------0-4----|----6s7-------|-----6s4--4s6--|
|-4--4s5--7--7-|-7--x-0-2----|-4--4s5--7--7-|-7---4s2--2s4--|
|-2-------5--5-|-5--x-0------|-2-------5--5-|-5-------------|


|--------------|-------------|--------------|-----------||
|--------------|-------------|--------------|-----------||
|--------------|-------------|--------------|-----------||
|----6s7-------|------0-4----|----6s7-------|-----------||
|-4--4s5--7--7-|-7--x-0-2----|-4--4s5--7--7-|-7----2----||
|-2-------5--5-|-5--x-0------|-2-------5--5-|-5----0----||


 
|--------------------|-----------------|
|--------------------|-----------------|
|--------------------|-----------------|
|------------7-7-7-0-|-2-2-2-2-4-4-4-0-|
|--4--4--4-0-5-5-5-0-|-0-0-0-0-2-2-2-0-|
|--2--2--2-0---------|-----------------|
|                                      |
|                                      |
|--------------------|-----------------|
|--------------------|-----------------|
|-11-11-11-7-7-7-7---|-9-9-9---4-4-4---|
|--x--x--x-x-x-x-x---|-x-x-x---x-x-x---|
|--9--9--9-5-5-5-5---|-7-7-7---2-2-2---|
|--------------------|-----------------|


  
|--------------------|------------------------|
|--------------------|------------------------|
|--------------------|------------------------|
|------------7-7-7-0-|-2-2-2---2--4---4--4-0--|
|--4--4--4-0-5-5-5-0-|-0-0-0---0--2---2--2-0--|
|--2--2--2-0---------|------------------------|
|                                             |
|--------------------|------------------------|
|--------------------|------------------------|
|-11-11-11-7-7-7-7---|-9-9-9-/14-14-\13-13----|
|--x--x--x-x-x-x-x---|-x-x-x---x--x---x--x----|
|--9--9--9-5-5-5-5---|-7-7-7-/12-12-\11-11----|
|--------------------|------------------------|



|----------------------|-----------------|
|----------------------|-----------------|
|----------------------|-----------------|
|------------7--7--7-0-|-2-2-2-2-4-4-4-0-|
|-4--4--4-0--5--5--5-0-|-0-0-0-0-2-2-2-0-|
|-2--2--2-0------------|-----------------|
|                                        |
|----------------------|-----------------|
|----------------------|-----------------|
|-9-11-11-9-11-11-11-9-|-6-6-6---4-4-4---|
|-x--x--x-x--x--x--x-x-|-x-x-x---x-x-x---|
|-7--9--9-7--9--9--9-7-|-4-4-4---2-2-2---|
|----------------------|-----------------|



|--------------------|-------------------|
|--------------------|-------------------|
|--------------------|-------------------|
|------------7-7-7-0-|-2-2-2--2-4-4-4-4--|
|--4--4--4-0-5-5-5-0-|-0-0-0--0-2-2-2-2--|
|--2--2--2-0---------|-------------------|
|                                        |
|--------------------|-------------------|
|--------------------|-------------------|
|-11-11-11-9-7-7-7-6-|-9-9-9\---4-4-4-4--|
|--x--x--x-x-x-x-x-x-|-x-x-x----x-x-x-x--|
|--9--9--9-7-5-5-5-4-|-7-7-7\---2-2-2-2--|
|--------------------|-------------------|


Chorus 
|---------------|------------------|-----------------|-------------------|
|---------------|--3---3-3-3-3-3-3-|-----------------|-------------------|
|-2--2-2-2--2-0-|--2---2-2-2-2-2-2-|-----------------|-------------------|
|-2--2-2-2--2-0-|--0---0-0-0-0-0-0-|-----------------|----------------0--|
|-0--0-0-0--0-0-|------------------|--4---4-4-4--4-0-|--2---2-2-2-2-2-0--|
|---------------|------------------|--2---2-2-2--2-0-|--0---0-0-0-0-0----|
|                                                                        |
|                                                                        |
|---------------|------------------|-----------------|-------------------|
|---------------|------------------|-----------------|-------------------|
|---------------|------------------|-----------------|-------------------|
|-2-------------|-(2)--------------|-(2)-------------|-(2)---------------|
|-0-------------|-(0)--------------|-(0)-------------|-(0)---------------|
|---------------|------------------|-----------------|-------------------|


  
|-----------------|------------------|---------------|-------------------|
|-----------------|--3---3-3-3-3-3-3-|---------------|-------------------|
|--2---2-2-2--2-0-|--2---2-2-2-2-2-2-|---------------|-------------------|
|--2---2-2-2--2-0-|--0---0-0-0-0-0-0-|---------------|----------------0--|
|--0---0-0-0--0-0-|------------------|-4--4-4-4--4-0-|-2--2-2-----2-2-0--|
|-----------------|------------------|-2--2-2-2--2-0-|-0--0-0-----0-0-0--|
|                                                                        |
|                                                                        |    
|-----------------|------------------|---------------|-------------------|
|-----------------|------------------|---------------|-------------------|
|-----------------|------------------|---------------|-------------------|
|-(2)-------------|-(2)--------------|---------------|-------------------|
|-(0)-------------|-(0)--------------|---------------|-------------------|
|-----------------|------------------|---------------|-------------------|



|-------------------|-------------------|
|-------------------|-3---3-3--3--3-3-3-|
|-2---2-2--2----2-0-|-2---2-2--2--2-2-2-|
|-2---2-2--2----2-0-|-0---0-0--0--0-0-0-|
|-0---0-0--0----0-0-|-------------------|
|-------------------|-------------------|
|                                       |
|                                       |
|-------------------|-------------------|
|-2-----2-------5---|-2-----2-----------|
|---2---------2-----|---2---------2-4---|
|-------------------|-------------------|
|-----0-------------|-----0-------------|
|-------------------|-------------------|



|-------------------|--------------------|
|-------------------|--------------------|
|-------------------|--------------------|
|-------------------|-----------------0--|
|-4---4-4--4----4-0-|-2---2-2--2--2-2-0--|
|-2---2-2--2----2-0-|-0---0-0--0--0-0----|
|
|-------------------|--------------------|
|-2-----2-------5---|-------2------------|
|---2---------2-----|-----2-------2-4----|
|-------------------|-2-4----------------|
|-----0-------------|--------------------|
|-------------------|--------------------|
                                       

                                      
                                       PM----|    PM----|

|----------|------------|------------|------------------------||
|----------|------------|------------|------------------------||
|----------|------------|------------|------------------------||
|-2--------|-(2)--------|-(2)--------|---------2----------2---||
|-0--------|-(0)--------|-(0)--------|-2-2-2-2-2--2-2-2-2-2---||
|----------|------------|------------|-0-0-0-0-0--0-0-0-0-0---||
|
|----------|------------|------------|------------------------||
|-2--------|-(2)--------|-(2)--------|------------------------||
|-2--------|-(2)--------|-(2)--------|------------------------||
|-2--------|-(2)--------|-(2)--------|------------------------||
|-0--------|-(0)--------|-(0)--------|------------------------||
|----------|------------|------------|------------------------||



|--------------|--------------|--------------|--------|
|--------------|--------------|--------------|--------|
|--------------|--------------|--------------|--------|
|----6s7-------|-----6s4--4---|----6s7-------|--------|
|-4--4s5--7--7-|-7---4s2--2-0-|-4--4s5--7--7-|-7------|
|-2-------5--5-|-5------------|-2-------5--5-|-5------|


Intro
Verse 1
Pre-Chorus
Chorus
Interlude(Intro)
Verse 2
Pre-Chorus
Chorus
Bridge
Pre-Chorus
Chorus (Acoustic)
Chorus
Outro

| /  slide up
| \  slide down
| h  hammer-on
| p  pull-off
| ~  vibrato
| +  harmonic
| x  Mute note
============================================================================
Comments