New Found Glory - All Downhill From Here Full Chords & Tabs

 

All Downhill From Here Full Chords & Tabs

New Found Glory Chords & Tabs

Version: 1 Type: Tab 3 ratings
1 star 2 stars 3 stars 4 stars 5 stars
comments

All Downhill From Here Full Tab

Song: all downhill from here
Artist: new found glory
By: tanner h.
Standard tuning 

					Intro

E|---------------------------------------------|
B|---------------------------------------------|
G|---------------------------------------------|
D|------6-6------------------------------------|
A|-4----4—4--7---8---8-------10/8--------------|	x4
E|-2---------5---6---6--------8/6--------------|

This is the part where he says “… Once again, you’re playing with emotions”
[ Tab from: http://www.guitartabs.cc/tabs/n/new_found_glory/all_downhill_from_here_full_tab.html ]
E|--------------------------------------------|
B|--------------------------------------------|
G|--------------------------------------------|
D|--------------------------------------------|
A|--4-4---7--7-------5-5--8--8----------------|		x4
E|--2-2---5---5------3-3--6--6----------------|

					Chorus
You can figure out the strumming
E|-----------------------------------------|
B|-----------------------------------------|
G|-----------------------------------------|
D|-----2--7--6--4--------------------------|
A|-----0--5--4--2--------------------------|
E|-----------------------------------------|
Then the intro plays again

					
						
This is the acoustic part (it is kinda the same as the chorus but different strumming)
E|----------------------------------|
B|----------------------------------|
G|----2--7--6--4--------------------|
D|----2--7--6--4--------------------|
A|----0--5--4--2--------------------|
E|----------------------------------|

Then it goes back to chorus

If you have any questions, I’m mistamonkey1@aol.com
Comments