New Found Glory - All Downhill From Here Chords & Tabs

 

All Downhill From Here Chords & Tabs

New Found Glory Chords & Tabs

Version: 1 Type: Chords 0 ratings
1 star 2 stars 3 stars 4 stars 5 stars
comments

All Downhill From Here Chords

   
title: all downhill from here
artist: hew found glory
album: catalyst
tabbed by: chris johnert 
#####################################################

CHORDS
    A  D  B  E  F#
e|-----------------|
B|-----------------|
G|-----7-----9-----|
D|--7--7--9--9--4--|
A|--7--5--9--7--4--|
E|--5-----7-----2--|

INTRO
e|----------------------|
B|----------------------|
G|----6/7-2-22-6/4-4/6--|
D|--4-x-x-2-22-x-x-x-x--| (4x)
A|--4-4/5-0-00-4/2-2/4--|
E|--2-------------------|

VERSE 1
e|-----------------------|
B|-----------------------|
G|-----------------------| (palm mute)
D|-----------------------| (4x)
A|-------5555-0000-2222--|
E|--2222-----------------|
you're hiding something cuz it's burning through your eyes
i try to get it out but all i hear from you are lies
F#        D           A                 B
and i can tell you're going through the motions
F#      D        A       B        F#
figured you were writing out your part
     D           A            B
once again we're playing off emotion
F#           D       B              A
which one of us will burn until the end
[ Tab from: http://www.guitartabs.cc/tabs/n/new_found_glory/all_downhill_from_here_crd.html ]
CHORUS
A   D          F#              E
catalyst you insist to pull me down
    A              D             F#             E
you contradict the fact that you still want me around
(guitar 2)
e|--------------------------------------------------------|
B|-6---6-7-6-9---6---6-7-6-----6---6-7-6-9-------6-7-6----|
G|---7-------------7-------7-----7-----------7-9-------7--|
D|--------------------------------------------------------|
A|--------------------------------------------------------|
E|--------------------------------------------------------|
        A       D         F#       E
and its all downhill from here
        A       D         F#       E
and its all downhill from here

(INTRO RIFF 2x)

VERSE 2
your good intentions slowly turn to bitterness
reoccurring episodes with each and every kiss
and i can tell you're going through the motions
figured you were writing out your part
once again we're playing off emotions
which one of us will burn until the end

CHORUS
catalyst you insist to pull me down
you contradict the fact that you still want me around
and its all downhill from here
and its all downhill from here

BRIDGE
(INTRO RIFF 6x)
and i canít believe you pulled it off again
iím running till it all sets in
youíll deny it till youíre at your bitter end
F#        D           A                 B
and i can tell you're going through the motions
F#      D        A       B        F#
figured you were writing out your part
     D           A            B
once again we're playing off emotion
F#           D       B              A
which one of us will burn until the end

CHORUS (no distortion)
catalyst you insist to pull me down
you contradict the fact that you still want me around
and its all downhill from here
and its all downhill from here

(AND YOU KEEP PULLING ME)

CHORUS (heavy distortion)
down
pulling me down pulling me down
you contradict the fact that you still want me around,
and its all downhill from here
and its all downhill from here

(INTRO RIFF 2x)
Comments