New Found Glory - All Downhill From Here Chords & Tabs

 

All Downhill From Here Chords & Tabs

New Found Glory Chords & Tabs

Version: 1 Type: Bass Tab 0 ratings
1 star 2 stars 3 stars 4 stars 5 stars
comments

All Downhill From Here Bass Tab

tabbed by: ulo (etitskoymalaki@yahoo.com)

song:  all downhill from here
band:  new found glory
album: catalyst
tuning: EADG


intro: (0:03 - 0:14)

|----------------------|----------------------|
|----------------------|----------------------|(2x)
|---4-5--------4-2-2-0-|---4-5--------4-2-2-4-|
|-2-----5-55-x---------|-2-----5-55-x---------|

verse1: (bass out; 0:14 - 0:25)

pre-chorus: (0:26 - 0:37)

|---------------------------------|
|---------------------------------|(3x)
|---------5-5-5-5---------2-2-2-2-|
|-2-2-2-2---------5-5-5-5---------|

|---------------------------------|
|---------------------------------|
|---------5-5-5-5---(pause)-------|
|-2-2-2-2---------5---------------|

chorus: (0:37 - 1:00)

|---------------------------------|
|---------------------------------|(3x)
|---------5-5-5-5-----------------|
|-5-5-5-5---------2-2-2-2-0-0-0-0-|

|---------------------------------------|
|---------------------------------------|
|---------5-5-5-5-----------------------|
|-5-5-5-5---------2-2-2-2-0000-0-0000-0-|

post-chorus: (1:00 - 1:05)

|----------------------|----------------------|
|----------------------|----------------------|
|---4-5--------4-2-2-0-|---4-5--------4-2-2-4-|
|-2-----5-55-x---------|-2-----5-55-x---------|

verse2: (1:05 - 1:17)

|---------------------------------|
|---------------------------------|(4x)
|---------5-5-5-5---------2-2-2-2-|
|-2-2-2-2---------5-5-5-5---------|

(repeat pre-chorus; 1:17 - 1:27)
[ Tab from: http://www.guitartabs.cc/tabs/n/new_found_glory/all_downhill_from_here_btab.html ]
(repeat chorus; 1:28 - 1:51)

post-chorus: (bass out; 1:51 - 1:56)

bridge: (1:57 - 2:07)

|----------------------|----------------------|
|----------------------|----------------------|
|---4-5--------4-2~~~~-|---4-5--------4-2-2-0-|
|-2-----5-55-x---------|-2-----5-55-x---------|

|----------------------|----------------------|
|----------------------|----------------------|
|---4-5--------4-2~~~~-|---4-5----------------|
|-2-----5-55-x---------|-2-----5-55~~---------|

pre-chorus: (2:08 - 2:20)

|---------------------------------|
|---------------------------------|(3x)
|---------5-5-5-5---------2-2-2-2-|
|-2-2-2-2---------5-5-5-5---------|

|--------------------------------------|
|--------------------------------------|
|---------5-5-5-5---------2-2-2-2-0~~~-|
|-2-2-2-2---------5-5-5-5--------------|

last chorus: (1st part, bass out; 2:20 - 2:40)

(bass come in; 2:41 - 2:42)

|---------------|
|---------------|
|---------------|
|-0000-0-0000-0-|

(2nd part; 2:42 - 3:06)

|---------------------------------|
|---------------------------------|(3x)
|---------5-5-5-5-----------------|
|-5-5-5-5---------2-2-2-2-0-0-0-0-|

|-----------------------------------------------------|
|-----------------------------------------------------|
|---------5-5-5-5-------------------------------------|
|-5-5-5-5---------2-2-2-2-0000-0-0000-0-0000-0-0000-0-|

outro: (3:08 - 3:11)

|--------------------------------|
|--------------------------------|
|-4-2-2-0---4-5--------4-2-2-4---|
|---------2-----5-55-x-----------|
Comments