New Found Glory - 3rd And Long Chords & Tabs

 

3rd And Long Chords & Tabs

New Found Glory Chords & Tabs

Version: 1 Type: Tab 0 ratings
1 star 2 stars 3 stars 4 stars 5 stars
comments

3rd And Long Tab

   

New Found Glory
3rd and Long

	Pm= Palm Mute
	P=Pull Off
	h=hamer-on	

	Intro (Distortion)
e|--------------------------|
B|--------------------------|
G|7-----6-----7-------------|                             
D|7-----7-----x----7--------|
A|5-----4-----5----7--------|
E|------------7----5--------|

	Verse 1  Play 2x
e|-----------------------------------------------------------------|
B|-----------------------------------------------------------------|
G|----7-------5-------2-------6-------7--7-7-7-7-------2-2-----2-2-|
D|4-4-4---5-5-5---2-2-2---7-7-7-------x--5-5-4-4---2-2-2-2-2-2-2-2-|
A|----5-------3-------4-------4---5-5-5--x-x-x-x-------4-4-----4-4-|
E|------------------------------------7--7-7-7-7-------------------|

e|-----------------------------------------------------------------|
B|-----------------------------------------------------------------|
G|----7-------5-------2-------6-------7--7-7-7-7---2-2-2-2-2-2-2-2-|
D|4-4-4---5-5-5---2-2-2---7-7-7-------x--5-5-4-4---2-2-2-2-2-2-2-2-|
A|----5-------3-------4-------4---5-5-5--x-x-x-x---4-4-4-4-4-4-4-4-|
E|------------------------------------7--7-7-7-7-------------------|
	
e|----------------------------------------------|
B|----------------------------------------------|
G|----------------------------------------------|
D|5-5---------7-7-5-4-2---5-5---------7-7-7-7-7-|
A|5-5-4-5-4---7-7---------5-5-4-5-4---7-7-7-7-7-|
E|3-3---------5-5---------3-3---------5-5-5-5-5-|
[ Tab from: http://www.guitartabs.cc/tabs/n/new_found_glory/3rd_and_long_tab.html ]
e|----------------------------------------------|
B|----------------------------------------------|
G|----------------------------------------------|
D|5-5---------7-7-5-4-2---5-5---------7-7-7-7-7-|
A|5-5-4-5-4---7-7---------5-5-4-5-4---7-7-7-7-7-|
E|3-3---------5-5---------3-3---------5-5-5-5-5-|
				                   					
	Chorus
e|-------------------------------------------------------------------|
B|-------------------------------------------------------------------|
G|7---------------7---------------7----------------------------------|
D|7---7---5-5-5---7---7---5-5-5---7---7--5-5-5-----4-7-------5-5-5-5-|
A|5---7---5-5-5---5---7---5-5-5---5---7--5-5-5---5-------4-7-5-5-5-5-|
E|----5---3-3-3-------5---3-3-3-------5--3-3-3---------5-----3-3-3-3-|
			
e|---------------------------------------------------------------------------|
B|---------------------------------------------------------------------------|
G|----------------------------------------4----------------------------------|
D|4-h5-h7---------5-5---4-h5-h7---------5-4-6-----play-this-line-4-times-----|
A|--------4-h5-h7-5-5-----------4-h5-h7-5-2-6--------------------------------|
E|----------------3-3-------------------3---4--------------------------------|
					Pm
	Base Thing
e|------------------------------------------------------|
B|------------------------------------------------------|
G|----------------------------Play-this-line-8-times----|
D|5-5-5-5--7-7-7-7--------------------------------------|
A|5-5-5-5--7-7-7-7--------------------------------------|
E|3-3-3-3--5-5-5-5--------------------------------------|

e|-------------------------------------------------------------------|
B|-------------------------------------------------------------------|
G|7---------------7---------------7----------------------------------|
D|7---7---5-5-5---7---7---5-5-5---7---7--5-5-5-----4-7-------5-5-5-5-|
A|5---7---5-5-5---5---7---5-5-5---5---7--5-5-5---5-------4-7-5-5-5-5-|
E|----5---3-3-3-------5---3-3-3-------5--3-3-3---------5-----3-3-3-3-|
			
e|-----------------------------------------------------------------------|
B|-----------------------------------------------------------------------|
G|----------------------------------------4------------------------------|
D|4-h5-h7---------5-5---4-h5-h7---------5-4-6-----play-this-line-4-times-|
A|--------4-h5-h7-5-5-----------4-h5-h7-5-2-6----------------------------|
E|----------------3-3-------------------3---4----------------------------|
					Pm
Song Ends on 4th time of last line
Comments