New Found Glory - 3rd And Long Chords & Tabs

 

3rd And Long Chords & Tabs

New Found Glory Chords & Tabs

Version: 1 Type: Bass Tab 0 ratings
1 star 2 stars 3 stars 4 stars 5 stars
comments

3rd And Long Bass Tab

Artist: New Found Glory 
Song: 3rd and Long 
Album: Nothing Gold Can Stay 
Tabbed By: Budah124 

~let ring 
#strum x12 

Intro: 
E:---------------------- 
A:--0~---4~---0~---5~--- 
D:---------------------- 
G:---------------------- 

Riff:1 
E:----------------------------------------------- 
A:--4444-------0000-------5555-------0000-------- 
D:--------4-5--------5-4--------4-5--------5-4--- 
G:----------------------------------------------- 

Riff:2 
E:------------------------------------- 
A:--4444--------0000--------55555555--- 
D:--------4-5---------5-4-------------- 
G:------------------------------------- 

Riff:3 
E:-------------------------------------------------------------------- 
A:--55555---44444---00000---777---4~---55555---44444---00000---777--5~ 
D:-------------------------------------------------------------------- 
G:-------------------------------------------------------------------- 
[ Tab from: http://www.guitartabs.cc/tabs/n/new_found_glory/3rd_and_long_btab.html ]
Riff:4 
E:----------------------------------------------------- 
A:---0-4--5#--0-5--4#--0-4--5#--00000--55555--7-5---4-- 
D:------------------------------------------------5---- 
G:----------------------------------------------------- 

Riff:5 
E:--------------------------------------- 
A:---000-4~--000-------000-4~--000------- 
D:----------------4-5---------------5-4-- 
G:--------------------------------------- 

Riff:6 
E:------------------------ 
A:---000-5-4-0000--------- 
D:----------------5-4-0--- 
G:------------------------ 

Riff:7 
E:------------------------------------------------------- 
A:---0-4--5#--0-5--4#--0-4--5#--00000--55555--77777777--- 
D:------------------------------------------------------- 
G:------------------------------------------------------- 


Song Order 

Riff:1x3 
Riff:2x1 
Riff:3x1 
Riff:1x3 
Riff:2x1 
Riff:3x1 
Riff:4x1 
Riff:5x4 
Riff:6x9 
Riff:7x1 
Riff:5x4 

That's it! 
Corrections or Comments E-mail me at Budah124@aol.com 

Comments