New Car Smell - Never There Chords & Tabs

 

Never There Chords & Tabs

New Car Smell Chords & Tabs

Version: 1 Type: Tab 0 ratings
1 star 2 stars 3 stars 4 stars 5 stars
comments

Never There Tab

By:New Car Smell
Song: Never there
standard tuning

intro:
e|---------------------------------------------|2x
B|---------------------------------------------|
G|---------------------------------------------|
D|-----7-h9-9----6-h9-6----4-h6-7----2-h4-4----|
A|--77--------66--------44--------22-----------|
E|---------------------------------------------|
[ Tab from: http://www.guitartabs.cc/tabs/n/new_car_smell/never_there_tab.html ]
corus:
e|-------|-------------------------------------------------|4x
B|-------|-------------------------------------------------|
G|-xx-xx-|-999-99-99-9-999-99-99-9-666-66-66-6-------------|
D|-xx-xx-|-999-99-99-9-999-99-99-9-666-66-66-6--777-xx-999-|
A|-xx-xx-|-777-77-77-7-666-66-66-6-444-44-44-4--777-xx-999-|
E|-xx-xx-|--------------------------------------555-xx-777-|

verse:1&2
e|--------------------------------------------------|2x
B|--------------------------------------------------|
G|------9--9------11--11-----6--6-------------------|
D|-----9--9-9----9---9--9---6--6-6--77-----99-------|
A|--77--------66----------44--------77--7--99--9----|
E|----------------------------------55-5-5-77-7-9---|
Comments