New Breed - Stand Chords & Tabs

 

Stand Chords & Tabs

New Breed Chords & Tabs

Version: 1 Type: Bass Tab 0 ratings
1 star 2 stars 3 stars 4 stars 5 stars
comments

Stand Bass Tab

Song: Song 3
Artist: New Breed 
Album: Ummmm....
Tabbed By: John Irving (newbreed@users.basstabarchive.com)


Guitar for 8 bars

Intro: Then 1st 4 bars again		 			
G|------16---14-|--12--11-12-11--|----14---12-|--11--9-11-9--|
D|14------------|----------------|------------|--------------|
A|--------------|----------------|------------|--------------|
E|--------------|----------------|------------|--------------|

G|----12---11-|--9--7----|--7-9-11--12--|14--16-----|
D|------------|----------|--------------|-----------|
A|------------|----------|--------------|-----------|
E|------------|----------|--------------|-----------|

Chorus: x4
----------------------|------------------|--------------------|---------------
----------------------|----------12------|--------------------|---------------
-------14-12-10-12-10-|-----10-9----10-9-|-------12-10-9-10-9-|-----9-10------
12--12----------------|8--8--------------|10--10--------------|7--7------8--10

Verse: x2
G|------16---14-|--12--11-12-11--|----14---12-|--11--9-11-9--|
D|14------------|----------------|------------|--------------|
A|--------------|----------------|------------|--------------|
E|--------------|----------------|------------|--------------|

G|----12---11-|--9--7----|--7-9-11--12--|14--16------|
D|------------|----------|--------------|--------14--|
A|------------|----------|--------------|------------|
E|------------|----------|--------------|------------|

G|16--19-19-16-19--|19-16-14--16--14-|--12-11--12----|14--11---12---|
D|-----------------|-----------------|---------------|--------------|
A|-----------------|-----------------|---------------|--------------|
E|-----------------|-----------------|---------------|--------------|
[ Tab from: http://www.guitartabs.cc/tabs/n/new_breed/stand_btab.html ]
G|14--9--------|9-11-12--14--16--|19-----------|
D|-------------|-----------------|-------------|
A|-------------|-----------------|-------------|
E|-------------|-----------------|-------------|

Chorus: x4
----------------------|------------------|--------------------|---------------
----------------------|----------12------|--------------------|---------------
-------14-12-10-12-10-|-----10-9----10-9-|-------12-10-9-10-9-|-----9-10------
12--12----------------|8--8--------------|10--10--------------|7--7------8--10

Verse: x2
G|------16---14-|--12--11-12-11--|----14---12-|--11--9-11-9--|
D|14------------|----------------|------------|--------------|
A|--------------|----------------|------------|--------------|
E|--------------|----------------|------------|--------------|

G|----12---11-|--9--7----|--7-9-11--12--|14--16------|
D|------------|----------|--------------|--------14--|
A|------------|----------|--------------|------------|
E|------------|----------|--------------|------------|

G|16--19-19-16-19--|19-16-14--16--14-|--12-11--12----|14--11---12---|
D|-----------------|-----------------|---------------|--------------|
A|-----------------|-----------------|---------------|--------------|
E|-----------------|-----------------|---------------|--------------|

G|14--9--------|9-11-12--14--16--|19-----------|
D|-------------|-----------------|-------------|
A|-------------|-----------------|-------------|
E|-------------|-----------------|-------------|

Chorus: x8
----------------------|------------------|--------------------|---------------
----------------------|----------12------|--------------------|---------------
-------14-12-10-12-10-|-----10-9----10-9-|-------12-10-9-10-9-|-----9-10------
12--12----------------|8--8--------------|10--10--------------|7--7------8--10

	I tabbed it.... YAY!!  Enjoy!
Comments