New Breed - 13th Month Chords & Tabs

 

13th Month Chords & Tabs

New Breed Chords & Tabs

Version: 1 Type: Bass Tab 0 ratings
1 star 2 stars 3 stars 4 stars 5 stars
comments

13th Month Bass Tab

New Breed Are a Bath, UK based band that have been on the small time UK sceene 
for about to years. i have been following them avidly and are my favourite
band, i am not sure if they have a webpage, as i have looked for them.
they have released 1 album that i know of called "Ummm...." where this song is
taken from. i have seem them gig a few times, and i can't believe they are not 
on your list. all my friends that like them agree that this is there best song. 
So please put them on your archive so that other people can lear about them and 
their great bassist. I hope that this is all the info you need. Thx.


Song: 13th Month
Artist: New Breed
Album: Ummmm....
Tabbed By: John Irving (newbreed@users.basstabarchive.com)

Guitar for 4 bars

Intro: x2
G|------------|--------------|------------|--------------|
D|------------|--------------|------------|--------------|
A|2-----------|2---2---2-2-0-|------------|------------5-|
E|------------|--------------|3-----------|3-3--3--3-3---|

Chorus (1st part):
G|------------|-------------|------------|--------------|
D|------------|7---5--4-5-4-|------------|---2-4--5-5-4-|
A|5--------5--|-------------|2--------2--|0-------------|
E|------------|-------------|------------|--------------|

G|------------|-------------|------------|-------------|
D|------------|7---5--4-5-4-|------------|---2-4--5--7-|
A|5--------5--|-------------|2--------2--|0------------|
E|------------|-------------|------------|-------------|

Chorus (2nd part):
G|----------------|---------------|
D|----------------|7-7-7-5--5-4-5-|
A|5-5-5-5-5-5-5-5-|---------------|
E|----------------|---------------|

G|----------------|---------------|
D|----------------|------2--4-5-7-|
A|2-2-2-2-2-2-2-2-|0-0-0----------|
E|----------------|---------------|

G|----------------|-----------|
D|----------------|7---9---9--|
A|5-5-5-5-5-5-5-5-|-----------|
E|----------------|-----------|

G|--------------|----------------|
D|9--------12-9-|7-9-7-5-7-5-4-5-|
A|--------------|----------------|
E|--------------|----------------|

Verse: x8
G|------------|--------------|------------|--------------|
D|------------|--------------|------------|--------------|
A|2-----------|2---2---2-2-0-|------------|------------5-|
E|------------|--------------|3-----------|3-3--3--3-3---|

Chorus (1st part):
G|------------|-------------|------------|--------------|
D|------------|7---5--4-5-4-|------------|---2-4--5-5-4-|
A|5--------5--|-------------|2--------2--|0-------------|
E|------------|-------------|------------|--------------|

G|------------|-------------|------------|-------------|
D|------------|7---5--4-5-4-|------------|---2-4--5--7-|
A|5--------5--|-------------|2--------2--|0------------|
E|------------|-------------|------------|-------------|

Chorus (2nd part):
G|----------------|---------------|
D|----------------|7-7-7-5--5-4-5-|
A|5-5-5-5-5-5-5-5-|---------------|
E|----------------|---------------|
[ Tab from: http://www.guitartabs.cc/tabs/n/new_breed/13th_month_btab.html ]
G|----------------|--------------|
D|----------------|------2--4-5-7|
A|2-2-2-2-2-2-2-2-|0-0-0---------|
E|----------------|--------------|

G|----------------|-----------|
D|----------------|7---9---9--|
A|5-5-5-5-5-5-5-5-|-----------|
E|----------------|-----------|

G|--------------|----------------|
D|9--------12-9-|7-9-7-5-7-5-4-5-|
A|--------------|----------------|
E|--------------|----------------|

Bridge:
G|----------------|----------------|
D|----------------|----------------|
A|2-2-2-2-2-2-2---|----------------|
E|--------------1/|3-3-3-3-3-3-3-3-|

G|--7----7----7-|--9----9----9-|
D|--------------|--------------|
A|5----5----5---|7----7----7---|
E|--------------|--------------|

G|----------------|----------------|
D|----------------|----------------|
A|2-2-2-2-2-2-2---|----------------|
E|--------------1/|3-3-3-3-3-3-3-3-|

G|----------------|----------------|
D|----------------|--4-7-4---------|
A|5-5-5-5-5-5-5-5-|7-------7-5-4-5-|
E|----------------|----------------|

G|----------------|----------------|
D|----------------|----------------|
A|2-2-2-2-2-2-2---|----------------|
E|--------------1/|3-3-3-3-3-3-3-3-|

G|--7----7----7-|--9----9----9-|
D|--------------|--------------|
A|5----5----5---|7----7----7---|
E|--------------|--------------|

G|----------------|----------------|
D|----------------|----------------|
A|2-2-2-2-2-2-2---|----------------|
E|--------------1/|3-3-3-3-3-3-3-3-|

G|------------------|------------------|
D|------------------|9-12-9------------|
A|5-5-7-7-9-9-12-12-|-------12-9-7-9-7-|
E|------------------|------------------|

Guitar for two bars

Verse: x4
G|------------|--------------|------------|--------------|
D|------------|--------------|------------|--------------|
A|2-----------|2---2---2-2-0-|------------|------------5-|
E|------------|--------------|3-----------|3-3--3--3-3---|


Chorus (1st part):
G|------------|-------------|------------|--------------|
D|------------|7---5--4-5-4-|------------|---2-4--5-5-4-|
A|5--------5--|-------------|2--------2--|0-------------|
E|------------|-------------|------------|--------------|

G|------------|-------------|------------|-------------|
D|------------|7---5--4-5-4-|------------|---2-4--5--7-|
A|5--------5--|-------------|2--------2--|0------------|
E|------------|-------------|------------|-------------|

Chorus (2nd part):
G|----------------|---------------|
D|----------------|7-7-7-5--5-4-5-|
A|5-5-5-5-5-5-5-5-|---------------|
E|----------------|---------------|

G|----------------|--------------|
D|----------------|------2--4-5-7|
A|2-2-2-2-2-2-2-2-|0-0-0---------|
E|----------------|--------------|

G|----------------|-----------|
D|----------------|7---9---9--|
A|5-5-5-5-5-5-5-5-|-----------|
E|----------------|-----------|

G|--------------|----------------|
D|9--------12-9-|7-9-7-5-7-5-4-5-|
A|--------------|----------------|
E|--------------|----------------|

Guitar Outro

End

Yay
Comments