New Bomb Turks - Snap Decision Chords & Tabs

 

Snap Decision Chords & Tabs

New Bomb Turks Chords & Tabs

Version: 2 Type: Tab 0 ratings
1 star 2 stars 3 stars 4 stars 5 stars
comments

Snap Decision Tab

------------------------------------------------------------------------------
		       SNAP DECISION - The New bomb Turks
------------------------------------------------------------------------------

By: Becky beck_e_b@greenday.ws

Intro:
E -----------------------------------------------|
B -----------------------------------------------|
G --11-11-11-11-11-11-11-11-11-11-11-11----------|
D --11-11-11-11-11-11-11-11-11-11-11-11----------|
A --9--9--9--9--9--9--9--9--9--9--9--9-----------|
E -----------------------------------------------|

Verse:
E ----------------------------------------------------------------|
B ----------------------------------------------------------------|
G ------------------------11-11-11-11-11-11-11-11-11-11-11-11-----|
D --7-7-5-7-7--7-7-5-7-7--11-11-11-11-11-11-11-11-11-11-11-11-----|
A --7-7-5-7-7--7-7-5-7-7--9--9--9--9--9--9--9--9--9--9--9--9------|
E --5-5-3-5-5--5-5-3-5-5------------------------------------------|
[ Tab from: http://www.guitartabs.cc/tabs/n/new_bomb_turks/snap_decision_tab_ver_2.html ]
E ------------------------------------------------------------------------------|
B ------------------------------------------------------------------------------|
G ------------------------------------------------------------------------------|
D --4-4-4-4-7-7-7-7-4--4--4-4-7-7-7-7-4--4--4-4-7-7-7-7-4-4-4-4-4-4-4-4-4-4-4-4-|
A --4-4-4-4-7-7-7-7-4--4--4-4-7-7-7-7-4--4--4-4-7-7-7-7-4-4-4-4-4-4-4-4-4-4-4-4-|
E --2-2-2-2-5-5-5-5-2--2--2-4-5-5-5-5-2--2--2-4-5-5-5-5-2-2-2-2-2-2-2-2-2-2-2-2-|

Then play intro bit once.

Chorus:
E --------------------------------------------|
B --------------------------------------------|
G -5-------------5----------------------------|
D ---7-5-------7---7-5-------4-4-4-4-4-4-4-4--|
A ------7-5----7-------7-5---4-4-4-4-4-4-4-4--|
E -----------7-5-----------7-2-2-2-2-2-2-2-2--| Play 4 times then :

E ------------------------------------|
B ------------------------------------|
G ------------------------------------|
D -7-7-7-7-7-7-7-7-9-9-9-9-9-9-9-9----|
A -7-7-7-7-7-7-7-7-9-9-9-9-9-9-9-9----|
E -5-5-5-5-5-5-5-5-7-7-7-7-7-7-7-7----|

Outro:
E ----------------------------------------------|
B ----------------------------------------------|
G ----------------------------------------------|
D -4-4-4-4-4-4-4-4-4-4-4-4-4-4-4-4---4--4--4--4-|
A -4-4-4-4-4-4-4-4-4-4-4-4-4-4-4-4---4--4--4--4-|
E -2-2-2-2-2-2-2-2-2-2-2-2-2-2-2-2---2--2--2--2-|
Comments